Oops, an error
Loading. Please wait.

Jah Gringo tab

version 2
version 2

Whole song

8,358 views 3 this week
no commentswrite comment
1 2 3 4 5
x 4
add to favorites
×
Save as Personal and add changes to this tab that will be seen only by you. Learn more ›
×
You can save this tab as Personal to edit and correct it or add notes. All changes will be seen only by you. Learn more »
launch autoscroll
font size
0
reset
how to read this tab
guitar tuner
edit
Autoscroll
slow
fast
+/-
esc
set tempo
stop
Author
Difficulty
-------------------------------------------------------------------------------
			     JAH GRINGO - Martin Jondo
-------------------------------------------------------------------------------
Tabbed by:Futuresss	
Email:futuresss@web.de

Tuning:standart
Note: ^ =  bend 1/2
I would be happy about any suggestions
e|-----x-x--------------x-x--------------x-x--------------x-x-------------------------|
B|-----x-x--------------x-x--------------x-x--------------x-x-------------------------|
G|-----x-x--------3-----x-x--------3-----x-x--------3-----x-x--5-------3--------------|
D|-----x-x5-5-3-5-------x-x5-5-3-5-------x-x5-5-3-5-------x-x----0-3-5---5------------|
A|-----x-x--------------x-x----------3-3-x-x----------5-5-x-x-------------------------|
E|-3-3-x-x----------6-6-x-x--------------x-x--------------x-x-------------------------|

e|-----x-x--------------x-x--------------x-x--------------x-x-------------------------|
B|-----x-x--------------x-x--------------x-x--------------x-x-------------------------|
G|-----x-x--------3-----x-x--------3-----x-x--------3-----x-x--5-------3--------------|
D|-----x-x5-5-3-5-------x-x5-5-3-5-------x-x5-5-3-5-------x-x----0-3-5---5------------|
A|-----x-x--------------x-x----------3-3-x-x----------5-5-x-x-------------------------|
E|-3-3-x-x----------6-6-x-x--------------x-x--------------x-x-------------------------|

e|-----3-3-3-3-3-----1-1-1-1-1-----3-3-3-3-3-----5-5-5-5-5----------------------------|
B|-----3-3-3-3-3-----3-3-3-3-3-----4-4-4-4-4-----6-6-6-6-6----------------------------|
G|-----3-3-3-3-3-----3-3-3-3-3-----5-5-5-5-5-----7-7-7-7-7----------------------------|
D|-----5-5-5-5-5-----3-3-3-3-3-----5-5-5-5-5-----7-7-7-7-7----------------------------|
A|-----5-5-5-5-5-1-1-1-1-1-1-1-3-3-3-3-3-3-3-5-5-7-5-5-5-5----------------------------|
E|-3-3-3-3-3-3-3----------------------------------------------------------------------|

e|-----3-3-3-3-3-----1-1-1-1-1-----3-3-3-3-3------5-5-5-55-5--------------------------|
B|-----3-3-3-3-3-----3-3-3-3-3-----4-4-4-4-4------6-6-6-66-6--------------------------|
G|-----3-3-3-3-3-----3-3-3-3-3-----5-5-5-5-5------7-7-7-77-7--------------------------|
D|-----5-5-5-5-5-----3-3-3-3-3-----5-5-5-5-5------7-7-7-77-7--------------------------|
A|-----5-5-5-5-5-1-1-1-1-1-1-1-3-3-3-3-3-3-3------5-5-5-55-5--------------------------|
E|-3-3-3-3-3-3-3----------------------------------------------------------------------|

e|---3--3-----1--1-----3--3-----5--5-----3--3-----1--1-----3--3-----5-----------------|
B|---3--3-----3--3-----4--4-----6--6-----3--3-----3--3-----4--4-----6-----------------|
G|---3--3-----3--3-----5--5-----7--7-----3--3-----3--3-----5--5-----7-----------------|
D|---5--5-----3--3-----5--5-----7--7-----5--5-----3--3-----5--5-----7-----------------|
A|---5--5--1--1--1--3--3--3--5--5--5-----5--5--1--1--1--3--3--3--5--5-----------------|
E|3--3--3-----------------------------3--3--3-----------------------------------------|


e|-x-----3--3-3-3-3-----1--1-1-1-1-----3--3-3-3-3-----5--5-5-5-5----------------------|
B|-x-----3--3-3-3-3-----3--3-3-3-3-----4--4-4-4-4-----6--6-6-6-6----------------------|
G|-x-----3--3-3-3-3-----3--3-3-3-3-----5--5-5-5-5-----7--7-7-7-7----------------------|
D|-x-----5--5-5-5-5-----3--3-3-3-3-----5--5-5-5-5-----7--7-7-7-7----------------------|
A|-x-----5--5-5-5-5-1-1-1--1-1-1-1-3-3-3--3-3-3-3-5-5-7--5-5-5-5----------------------|
E|-x-3-3-3--3-3-3-3-------------------------------------------------------------------|

e|-----3--3-3-3-3-----1--1-1-1-1-----3--3-3-3-3---------5------5----------------------|
B|-----3--3-3-3-3-----3--3-3-3-3-----4--4-4-4-4---------6------6----------------------|
G|-----3--3-3-3-3-----3--3-3-3-3-----5--5-5-5-5---------7------7----------------------|
D|-----5--5-5-5-5-----3--3-3-3-3-----5--5-5-5-5-------7---7---------------------------|
A|-----5--5-5-5-5-1-1-1--1-1-1-1-3-3-3--3-3-3-3-----5--------5------------------------|
E|-3-3-3--3-3-3-3---------------------------------------------------------------------|

	
e|------------------------------------------------------------------------------------|
B|----------3-------------3-------------4-------------6-------------------------------|
G|------------3-------3-----3-------5-----5-------7-----7---------SOMETHING LIKE THAT!|
D|-----5--------5---3---3-----3---5---5-----5---7---7-----7---------------------------|
A|---5---5--------1-------------3-------------5---------------------------------------|
E|-3----------------------------------------------------------------------------------|

e|---3--3--3--3----1--1--1--1-------3--3--3----5--5--5--------------------------------|
B|---3--3--3--3----3--3--3--3-------4--4--4----6--6--6--------------------------------|
G|---3--3--3--3----3--3--3--3-------5--5--5----7--7--7--------------------------------|
D|---5--5--5--5----3--3--3--3-------5--5--5----7--7--7--------------------------------|
A|---5--5--5--5--1-1--1--1--1-------3--3--3----5--5--5--------------------------------|
E|-3-3--3--3--3-----------------------------------------------------------------------|

e|---3--3--3--3----1--1--1--1-------3--3--3----5----5----5----------------------------|
B|---3--3--3--3----3--3--3--3-------4--4--4----6----6----6----------------------------|
G|---3--3--3--3----3--3--3--3-------5--5--5----7----7----7----------------------------|
D|---5--5--5--5----3--3--3--3-------5--5--5----7----7----7----------------------------|
A|---5--5--5--5--1-1--1--1--1-------3--3--3----5----5----5----------------------------|
E|-3-3--3--3--3-----------------------------------------------------------------------|

e|-3-3-3-3-3-3--1-1-1-1-1-1--3-3-3-3-3-3--5-5-5-5-5-5---------------------------------|
B|-3-3-3-3-3-3--3-3-3-3-3-3--4-4-4-4-4-4--6-6-6-6-6-6---------------------------------|
G|-3-3-3-3-3-3--3-3-3-3-3-3--5-5-5-5-5-5--7-7-7-7-7-7---------------------------------|
D|-5-5-5-5-5-5--3-3-3-3-3-3--5-5-5-5-5-5--7-7-7-7-7-7---------------------------------|
A|-5-5-5-5-5-5--1-1-1-1-1-1--3-3-3-3-3-3--5-5-5-5-5-5---------------------------------|
E|-3-3-3-3-3-3------------------------------------------------------------------------|

e|-3-3-3-3-3-3--1-1-1-1-1-1--3-3-3-3-3-3--5-55--55--555-------------------------------|
B|-3-3-3-3-3-3--3-3-3-3-3-3--4-4-4-4-4-4--6-66--66--666-------------------------------|
G|-3-3-3-3-3-3--3-3-3-3-3-3--5-5-5-5-5-5--7-77--77--777-------------------------------|
D|-5-5-5-5-5-5--3-3-3-3-3-3--5-5-5-5-5-5--7-77--77--777-------------------------------|
A|-5-5-5-5-5-5--1-1-1-1-1-1--3-3-3-3-3-3--5-55--55--555-------------------------------|
E|-3-3-3-3-3-3------------------------------------------------------------------------|

e|-----3-3-3-3-3-----1-1-1-1-1-----3-3-3-3-3-----5-5-5-5-5----------------------------|
B|-----3-3-3-3-3-----3-3-3-3-3-----4-4-4-4-4-----6-6-6-6-6----------------------------|
G|-----3-3-3-3-3-----3-3-3-3-3-----5-5-5-5-5-----7-7-7-7-7----------------------------|
D|-----5-5-5-5-5-----3-3-3-3-3-----5-5-5-5-5-----7-7-7-7-7----------------------------|
A|-----5-5-5-5-5-1-1-1-1-1-1-1-3-3-3-3-3-3-3-5-5-7-5-5-5-5----------------------------|
E|-3-3-3-3-3-3-3----------------------------------------------------------------------|

e|-----3-3-3-3-3-----1-1-1-1-1-----3-3-3-3-3------5-5-5-55-5--------------------------|
B|-----3-3-3-3-3-----3-3-3-3-3-----4-4-4-4-4------6-6-6-66-6--------------------------|
G|-----3-3-3-3-3-----3-3-3-3-3-----5-5-5-5-5------7-7-7-77-7--------------------------|
D|-----5-5-5-5-5-----3-3-3-3-3-----5-5-5-5-5------7-7-7-77-7--------------------------|
A|-----5-5-5-5-5-1-1-1-1-1-1-1-3-3-3-3-3-3-3------5-5-5-55-5--------------------------|
E|-3-3-3-3-3-3-3----------------------------------------------------------------------|

e|-----3-3-3-3-3-----1-1-1-1-1-----3-3-3-3-3-----5-5-5-5-5----------------------------|
B|-----3-3-3-3-3-----3-3-3-3-3-----4-4-4-4-4-----6-6-6-6-6----------------------------|
G|-----3-3-3-3-3-----3-3-3-3-3-----5-5-5-5-5-----7-7-7-7-7----------------------------|
D|-----5-5-5-5-5-----3-3-3-3-3-----5-5-5-5-5-----7-7-7-7-7----------------------------|
A|-----5-5-5-5-5-1-1-1-1-1-1-1-3-3-3-3-3-3-3-5-5-7-5-5-5-5----------------------------|
E|-3-3-3-3-3-3-3----------------------------------------------------------------------|

e|-----3-3-3-3-3-----1-1-1-1-1-----3-3-3-3-3------5-5-5-55-5--------------------------|
B|-----3-3-3-3-3-----3-3-3-3-3-----4-4-4-4-4------6-6-6-66-6--------------------------|
G|-----3-3-3-3-3-----3-3-3-3-3-----5-5-5-5-5------7-7-7-77-7--------------------------|
D|-----5-5-5-5-5-----3-3-3-3-3-----5-5-5-5-5------7-7-7-77-7--------------------------|
A|-----5-5-5-5-5-1-1-1-1-1-1-1-3-3-3-3-3-3-3------5-5-5-55-5--------------------------|
E|-3-3-3-3-3-3-3----------------------------------------------------------------------|

e|-----3-3-3-3-3-----1-1-1-1-1-----3-3-3-3-3-----5-5-5-5-5----------------------------|
B|-----3-3-3-3-3-----3-3-3-3-3-----4-4-4-4-4-----6-6-6-6-6----------------------------|
G|-----3-3-3-3-3-----3-3-3-3-3-----5-5-5-5-5-----7-7-7-7-7----------------------------|
D|-----5-5-5-5-5-----3-3-3-3-3-----5-5-5-5-5-----7-7-7-7-7----------------------------|
A|-----5-5-5-5-5-1-1-1-1-1-1-1-3-3-3-3-3-3-3-5-5-7-5-5-5-5----------------------------|
E|-3-3-3-3-3-3-3----------------------------------------------------------------------|

e|-----3-3-3-3-3-----1-1-1-1-1-----3-3-3-3-3------5-----------------------------------|
B|-----3-3-3-3-3-----3-3-3-3-3-----4-4-4-4-4------6-----------------------------------|
G|-----3-3-3-3-3-----3-3-3-3-3-----5-5-5-5-5------7-----------------------------------|
D|-----5-5-5-5-5-----3-3-3-3-3-----5-5-5-5-5------7-----------------------------------|
A|-----5-5-5-5-5-1-1-1-1-1-1-1-3-3-3-3-3-3-3------5-----------------------------------|
E|-3-3-3-3-3-3-3----------------------------------------------------------------------|

e|-----x-x--------------x-x--------------x-x--------------x-x-------------------------|
B|-----x-x--------------x-x--------------x-x--------------x-x-------------------------|
G|-----x-x--------3-----x-x--------3-----x-x--------3-----x-x--5-------3--------------|
D|-----x-x5-5-3-5-------x-x5-5-3-5-------x-x5-5-3-5-------x-x----0-3-5---5------------|
E|-3-3-x-x----------6-6-x-x--------------x-x--------------x-x-------------------------|

e|-----x-x--------------x-x--------------x-x--------------x-x-----------------------3-|
B|-----x-x--------------x-x--------------x-x--------------x-x--5^-----5^------------3-|
G|-----x-x--------3-----x-x--------3-----x-x--------3-----x-x--5^-5-5-5^-5-5-3------3-|
D|-----x-x5-5-3-5-------x-x5-5-3-5-------x-x5-5-3-5-------x-x------------------5-3--5-|
A|-----x-x--------------x-x----------3-3-x-x----------5-5-x-x-----------------------5-|
E|-3-3-x-x----------6-6-x-x--------------x-x--------------x-x-----------------------3-|

I would be happy about any suggestions
************************************
| 
| /   slide up
| \   slide down
| h   hammer-on
| p   pull-off
| ~   vibrato
| +   harmonic
| x   Mute note
| b   Bend
| pb  Pre-bend
| br  Bend release
| pbr Pre-bend release
| brb Bend release bend

************************************

            
            
Suggest correction
Creating personal tab
Creating personal tab
You can edit any tab online and save it as your Personal.

You can edit, replace or remove any tab part or add personal notes – all changes will be seen only by you.

Personal tabs can be accessed anytime from any device, even offline.
Learn more »
comments
print report bad tab
guest
You may want to rate the tab now too:
select rating
Wanna post a correction for this tab? Suggest correction