Oops, an error
Loading. Please wait.

Exa Tab

31 views 3 this week
no commentswrite comment
1 2 3 4 5
3 more votes to show rating
add to favorites
launch autoscroll
font size
0
reset
how to read this tab
guitar tuner
Autoscroll
slow
fast
+/-
esc
set tempo
stop
Help us to improve Ultimate-Guitar.com Take our survey!
×
Author
Difficulty
Capo
novice
2nd fret
About this tab version
This is originally a piano piece intro that has been transcribed for the guitar. Have a good listen before to the original to get a feel for the song. The capo is on the second fret, and the tuning is CEAGAB. Hail Hydra. Was this info helpful? Yes No
[Intro]

B|--0--------0--------1p0----------1p0--------1p0---------1p0------1p0---------1p0-----------------|
A|-----0--------0-----------0-----------0----------0-----------0--------0-----------0--------------|
G|--------0--------0-----------0-----------0-----------0--------------------0----------0-----------|
A|--------------------------------------------0----------------------------------------------------|
E|--0-----------------3----------------------------------------------------------------------------|
C|------------------------------------------------------------------0------------------------------|

B|--5p0-------0--------1p0---------1p0---------1p0---------1p0------1p0---------1p0----------------|
A|------0--------0----------0-----------0----------0-----------0---------0-----------0-------------|
G|---------0--------0----------0-----------0----------0---------------------0-----------0----------|
A|----------------------------------------------0--------------------------------------------------|
E|--0------------------3---------------------------------------------------------------------------|
C|-------------------------------------------------------------------0-----------------------------|


************************************

| p  Pull-off

************************************
Suggest correction
Give kudos to tab author, rate the tab!
1 2 3 4 5
comments
print report bad tab
guest
You may want to rate the tab now too:
select rating
Wanna post a correction for this tab? Suggest correction