Oops, an error
Loading. Please wait.

Aun Queda Dios Bass

13 views 1 this week
no commentswrite comment
1 2 3 4 5
3 more votes to show rating
add to favorites
launch autoscroll
font size
0
reset
guitar tuner
×
Best way to learn
"Aun Queda Dios"
Autoscroll
slow
fast
+/-
esc
set tempo
stop
E|-3--3----3-3--1-1-0-0-|
 Sentado en un café 

A|-------------------3-3--5-5-0-|
E|-O--O--O--O--5--5-------------|
 Viendo lluvia caer, recordando

E|-3--3----3-3--1-1-0-0-|
 El pensaba en el ayer, 

E|-0-0-0--0--0--5-5--| 
 En aquella juventud 

A|---------3-3-3-----
E|-5-5--5---------5-5-5--5-|  
 Que se encuentra tan atrás

A|--------5-5-5--|
E|-5-5-5---------| 
 aquella mocedad

A|-5-5-5---1--1-----5--5---5----|  
 Aquellos tiempos ¿dónde están?

A|-5--5--5--5-----------|
E|---------------0--0-0-|        
 Por qué tanta soledad?!

A|-----------------5---5---5-|
E|-O---O---5--5--------------|     
 Con una lágrima preguntaba.

E|-3--3----3-3--1-1-0-0-|
 Eran tiempos de pasión,

A|-------------------3-3--5-5-0-|
E|-O--O--O--O--5--5-------------|
 De dar el corazón sin pensarlo

E|-3--3----3-3--1-1-0-0----0-0----0-0----5-5--|
 Cuando todo lo arriesgó: amor, lealtad, dolor

A|------3--3-----------------------5--5--|
E|-5-5--------5-5-5----5--5---5-5--------|   
 Cuando todo se jugó, cuando todo apostó

A|-5--1-1-1-------5--5-5-5----5--5--0--0-|     
 Y la ruleta del amor nunca nada le pagó

A|------------------------
E|-0--0--0--5--5---3--3--5--5--|
 Yo oía al viento contestarle:

A|---------5-5-----5--5--5-|
E|-3--3-3------------------|
 Aún queda Dios, ¡escúchalo!

A|1-1-1--1-1--------3-3---3-3---3-----------|
E|------------1-1--------------------3--3-3-|
 El aún sigue ahí, como allá en tu juventud

A|---------5-5-----5--5--5-|
E|-3--3-3------------------|
 Aún queda Dios, ¡entiéndelo!

A|1-1-1--1-1--------3-3---3-3---3-----------|
E|------------1-1--------------------3--3-3-|
 El aún sigue ahí, como allá en tu juventud

E|-3--3----3-3--1-1-0-0-| 
 Sentado en un café 

A|-------------------|
E|-O--O--O--O--5--5--|
 Viendo lluvia caer,  

A|3-3--5-5-0-|
 Dios le hablaba

E|-3--3----3-3--1-1-0-0-|
 Hey, yo nunca te dejé

E|-0-0-0--0--0--5-5-5-|  
 siempre a tu lado fui, 

A|-3-3-3-3-----------|
E|----------5-5-5--5-|      
 yo nunca te abandoné,

A|----------------5-5--5-5-|
E|-5-5--5-5-5--5-----------|
 cuando más solo tu estabas, 

A|-5-5-5---1--1-----5--5---5--|
 yo con más fuerzas te abracé,

E|-0--0--0--0-0-0--0-0-0-0-|        
 nunca hemos estado lejos, 

A|------3--3--5-5-5----5--5---5-5---|
E|-5-5------------------------------|
 aunque otros piensen lo contrario.
Suggest correction
Give kudos to tab author, rate the tab!
1 2 3 4 5
comments
print report bad tab
guest
You may want to rate the tab now too:
select rating
Wanna post a correction for this tab? Suggest correction