Oops, an error
Loading. Please wait.

Bendita Seras Llamada Bass Tab

10 views 1 this week
no commentswrite comment
1 2 3 4 5
3 more votes to show rating
add to favorites
launch autoscroll
font size
0
reset
guitar tuner
×
Best way to learn
"Bendita Seras Llamada"
Autoscroll
slow
fast
+/-
esc
set tempo
stop
A)

A|--------5--5---5--5--|                          
E|-5-5-----------------|
 Porque siempre seras,                             

E|0-0--0---0--0---5-5-5-|                          
 Madre de nuestro pueblo,
                                                   
A|----------------------2-2--|                    
E|-2--2--2---2--2----2-------|
 fiel a los hombres y a Dios

E|-----0---0--------------5-5-5-|   
 tan llena de Dios y tan nuestra. (2)

B)

A|------------------------4-4----------------|
E|-------5-5--5---5-5-------------------2-2--|     
 Porque nunca al Señor tu Dios, negaste nada   

A|-----5----5--5-------------------------|
E|------------------0--0----0--0---5--5--|    
 y contigo siempre contó para sus planes,

A|-------5---5--5---5---------------------|
E|----------------------0----0--0---5--5--|       
 porque todo tu ser le diste sin reservas,

A|---------------------2-------0----0-0------------|
E|----2---2---2--2---------------------------5---5-|  
 por ser la creyente fiel, Bendita Seras Llamada.

C)

A|------------------------4-4----------------|
E|-------5-5--5---5-5-------------------2-2--| 
 Como Madre pones en marcha la ternuera,

A|-----5----5--5---------------------------|
E|------------------0--0----0--0---5--5-5--|   
 en los pobres pones en marcha la esperanza,

A|-------5---5--5---5---------------------|
E|----------------------0----0--0---5--5--|  
 porque todo tu ser le diste sin reservas,

A|---------------------2-------0----0-0------------|
E|----2---2---2--2---------------------------5---5-| 
 por ser la creyente fiel, Bendita Seras Llamada.

D)

A|------------------------4-4----------------|
E|-------5-5--5---5-5-------------------2-2--| 
 Con la Iglesia en sus comienzos tu estuviste,

A|-----5----5--5-------------------------|
E|------------------0--0----0--0---5--5--|   
 compañera de luchas, penas y esperanzas,

A|-------5---5--5---5----------------------------|
E|------------------------0----0--0--------5--5--| 
 porque hoy vas caminando al lado de tu pueblo,

A|---------------------2-------0----0-0------------|
E|----2---2---2--2---------------------------5---5-|
 por ser la creyente fiel, Bendita Seras Llamada.
Suggest correction
Give kudos to tab author, rate the tab!
1 2 3 4 5
comments
print report bad tab
guest
You may want to rate the tab now too:
select rating
Wanna post a correction for this tab? Suggest correction