Oops, an error
Loading. Please wait.

Con Y Por Amor Tab

49 views 1 this week
no commentswrite comment
1 2 3 4 5
3 more votes to show rating
add to favorites
launch autoscroll
font size
0
reset
how to read this tab
guitar tuner
×
Best way to learn
"Con Y Por Amor"
Autoscroll
slow
fast
+/-
esc
set tempo
stop
'Aquel que trabaja todo el dia en lo que no ama,
es un des-ocupado'

Martín Valverde


Intro : Amaj7  Dmaj7 Amaj7  Dmaj7  Amaj7


                                  Dmaj7           Amaj7
Te has puesto a pensar lo que puedes hacer con amor,
                                   Dmaj7          C#7
Te has puesto a medir tan siquiera su gran valor.
             F#m                 C#m
No hablo de amor de palabras,
             F#m
yo hablo de amor
 A7         D
que sabe hacer
             E                Amaj7    Dmaj7 Amaj7
dar por el otro lo que por ti das.


                               Dmaj7      Amaj7
Siempre hay montañas que no te dejan amar,
                            Dmaj7           C#7
Si tratas tú solo jamás las podrías quitar.
               F#m         C#7
Es duro en la lucha seguir
       F#m     A7            D
cuando parece que solo tú estás,

           E                  C#m
Cuando tú creas que no puedes más,
        [ch]F#              D[/ch]
sigue adelante y encontrarás
                [ch]E                 Amaj7   Dmaj7 Amaj7[/ch]
Siempre habrá alguien que está sin amor.

                         Dmaj7          Amaj7
De muchos ojos, lágrimas has de quitar,
                       Dmaj7    C#7
a muchas bocas podrás alimentar,
            F#m        C#7
llenando su hambre de paz,
            F#m  A7     D
llenando su hambre de amor

             E          C#m
Sé que es difícil realizar,
        F#m           D
sé que mucho a de costar,
           E              Amaj7  Dmaj7  Amaj7
Pero lo puedes hacer con amor.
       Dmaj7 Amaj7           Dmaj7  Amaj7
Con amor,          con amor  con amor
           Dmaj7
Lo puedes lograr


intro:

E-------0-----------0----------0------------0----------
B-------2-----------2----------2------------2----------
G-------1-----------1----------1------------1----------
D---2------------2----------2-----------2--------------
A-0------------0----------0----------0-----------------
E------------------------------------------------------


E-------2---------2-------2---------2------------------
B-------2---------2-------2---------2------------------
G-------2---------2-------2---------2------------------
D----0----------0-------0---------0--------------------
A--0----------0-------0---------0----------------------
E------------------------------------------------------


E---5---2---0----2---5----2----------------------------
B---2---2---0----2---2----2----------------------------
G---2---2---0----2---2----2----------------------------
D------------------------------------------------------
A------------------------------------------------------
E------------------------------------------------------

esto lo tepites 2 veces o tantas como quieras o hasata que comience la letra
si te das cuenta lo que esta en el hexagrama son las notas que corresponden a
Amaj7  y  Dmaj7  respectivamente


esta es: Amaj7

  7        6       5         4        3      2         1
------  ------   ------   ------   ------  ------   ------
------  ------   ------   ------   ------  ------   ------
------  ------   ------   ------   ------  ---0--   ------
------  ------   ------   ------   ------  ------   ---0--
------  ------   ------   ------   ------  ---0--   ------
------  ------   ------   ------   ------  ------   ------


esta es: Dmaj7

  7        6       5         4        3      2         1
------  ------   ------   ------   ------  ------   ------
------  ------   ------   ------   ------  ------   ------
------  ------   ------   ------   ------  ------   ------
------  ------   ------   ------   ------  ---0--   ------
------  ------   ------   ------   ------  ---0--   ------
------  ------   ------   ------   ------  ---0--   ------


esta es: C#7

  7        6       5         4        3      2         1
------  ------   ------   ------   ------  ------   ------
------  ------   ------   ---0--   ------  ------   ------
------  ------   ------   ------   ---0--  ------   ------
------  ------   ------   ---0--   ------  ------   ------
------  ------   ------   ------   ------  ------   ------
------  ------   ------   ---0--   ------  ------   ------
Suggest correction
Give kudos to tab author, rate the tab!
1 2 3 4 5
comments
print report bad tab
guest
You may want to rate the tab now too:
select rating
Wanna post a correction for this tab? Suggest correction