Oops, an error
Loading. Please wait.

Cuando Llegue A Viejo Bass Tab

13 views 1 this week
no commentswrite comment
1 2 3 4 5
3 more votes to show rating
add to favorites
launch autoscroll
font size
0
reset
guitar tuner
Autoscroll
slow
fast
+/-
esc
set tempo
stop
Help us to improve Ultimate-Guitar.com Take our survey!
×
A)                                  

A|5--5----5--5--5---5-5----5--0----0--0-2--2--|
 Hoy he pensado en cosas que antes no pensaba,

E|----3---3---3-3---3--0-----0---0-----5--5--|
 Tal vez por verlas antes de mí tan lejanas,

A|5--5----5--5--5---5-0---0---0--2--2--|  
 hoy he sentido lo que antes no sentía,

E|----3---3---3---0-----0---0-----5--5--| 
 preocuparme por cosas de otros días,

E|3--3---3--3----3--0---0-0--0----5--5--|  
 hoy he pensado lo que antes no pensaba,

E|3--3---3--3----3--0---0----5--5--|   
 he sentido lo que antes no sentía.

B)

A|5--5----5--5--5----0----0--0--0---2--2--|
 He visto mi vida pasando en un espejo,

E|----3---3---3-3---3--0-----0---0--0----5--5-|
 y a todos mis amigos ahora conmigo ya viejos,

A|5--5----5--5--5----0---0---0-0----2--2--| 
 a mi fiel compañera y a nuestros retoños 

E|----3---3---3---0-----0---0-----5--5--| 
 ahora con los suyos llamándome abuelo,

E|3--3---3--3----3--0---0-0--0--5--5--| 
 y pensando en esto mi alma se reía.

E|----3---3---3---0-----0---0-----5--5--|
 Y pensando en esto esta canción nacía.

C)

A|5--5----5-5----5--5---5--5---5--5-----0----0-----0-----2--2--|
 Cuando llegue a viejo quiero hacerle caso a mi mejor consejo,

A|--2---2--2---------------------------------------------5--5-|
E|----------------3---3--3-----3--5-----5--5--5--5---5-5------|
 la vida es una sola y es mejor vivir hasta el último aliento.

A|--2---2--2---------------------------------------------5--5-|
E|----------------3---3--3-----3---5-----5--5--5--5---5-5-----|                
 cuando llegue a viejo no quiero vivir solo de los recuerdos,

E|-2---2---2--2--7--7----0-0--0---0----5--5--|
 quiero ver al frente y aprovechar mi tiempo,

A|--2---2--2-----------------------------------------5--5-|
E|----------------3---3--3-----5-----5--5--5--5---5-5-----|             
 cuando Dios me llame para ya dejar a este mundo tan terco,

E|-2---2---2--2--7--0-0--0---0-0--0-5--5--|
 sé que no termino, allá apenas comienzo.

D)

A|5--5----5--5--5---5-5----5--0----0--0-2--2--|                                        
 Y hoy pensando en aquellos que llaman viejos,

E|----3---3---3-3---3--0-----0---0-----5--5--|
 que con sus canas me dieron su mejor consejo,

A|5--5----5--5--5---5-0---0---0--2--2--|
 pido perdón por no haberlos valorado,

E|----3---3---3---0-----0---0-----5--5--|
 pido perdón por no haberlos escuchado,

E|3--3---3--3----3--0---0-0--0----5--5--| 
 es normal que el joven no acepte un consejo      

E|3---3---3-3---3---3---3---3-----0-----0---0--0-0---5--5-|
 y que no entienda que hasta el diablo sabe más por viejo.

E)

A|5--5----5--5--5----0----0--0--0---2--2--|
 Aquellos con arrugas  y sus piel cansada,

E|----3---3---3-3---3--0---0--0----5--5-|
 hoy les doy la honra que les fue negada, 

A|5--5----5--5--5----0---0--------2--2--| 
 pues conozco a muchos jóvenes inmersos,

E|---3---3---3---0---0----------------------5--5--| 
 con su corazón ya viejo y puede que hasta muerto,

E|3--3---3--3----3--3---0-0--0--------5--5--|
 aquellos que han amado no saben del tiempo

E|----3---3---3----0-----0---0--5-5--|
 aún en su mirada se puede ver eso.

F)

A|5--5----5-5----5--5---5--5---5--5-----0----0-----0-----2--2--|
 Cuando llegue a viejo quiero hacerle caso a mi mejor consejo,

A|--2---2--2---------------------------------------------5--5-|
E|----------------3---3--3-----3--5-----5--5--5--5---5-5------|
 la vida es una sola y es mejor vivir hasta el último aliento.

A|--2---2--2---------------------------------------------5--5-|
E|----------------3---3--3-----3---5-----5--5--5--5---5-5-----|                
 cuando llegue a viejo no quiero vivir solo de los recuerdos,

E|-2---2---2--2--7--7----0-0--0---0----5--5--|
 quiero ver al frente y aprovechar mi tiempo,

A|--2---2--2-----------------------------------------5--5-|
E|----------------3---3--3-----5-----5--5--5--5---5-5-----|             
 cuando Dios me llame para ya dejar a este mundo tan terco,

E|-2---2---2--2--7--0-0--0---0-0--0-5--5--|
 sé que no termino, allá apenas comienzo.
Suggest correction
Give kudos to tab author, rate the tab!
1 2 3 4 5
comments
print report bad tab
guest
You may want to rate the tab now too:
select rating
Wanna post a correction for this tab? Suggest correction