Oops, an error
Loading. Please wait.

Dame Bass

23 views 1 this week
no commentswrite comment
1 2 3 4 5
3 more votes to show rating
add to favorites
launch autoscroll
font size
0
reset
guitar tuner
×
Best way to learn
"Dame"
Autoscroll
slow
fast
+/-
esc
set tempo
stop
A|----5--5--5--7-7--2-2--2--|
E|3-3-----------------------|
 Dame  un poco de fuerzas

A|2-2--2-2--3---3---------------5--5---|
E|----------------5---5----5-----------|
 Para continuar peleando en la batalla

A|----5--5-5-|
E|3-3--------|
 Dame

A|7--7-----2----3---------5--5--5---|
E|-----------------5----------------|
 Fe para creer que yo triunfaréeee

A|----5--5----5----7---------2--2-2-|
E|3-3-------------------------------|
 Dame  un poco de paz para no temblar

A|2-2--3-3--3---3----------------------5--5---|
E|-------------------------5------------------|    
 para no preocuparme de nada que pueda pasar

A|-------5-5-7--7--7-------2--2-----|
E|3-3--3----------------------------|
 Daaameee   fortaleza para   seguir

A|2-2--3-3--3---3---------------5--5---|
E|------------------5----5--5----------|  
 para luchar para llegar hasta al fin 

A|----------------5-5--5---| 
E|-------3--3--3-----------|      
 yo se que tu no fallaras 

A|------7---7----8-8--8----3---3---0------0----0-----5--5---5--5-|
 se que tu, tu lograras terminar la obra que  has empezado en mi 
 
A|-5--5-5----8--8--5-5--5-|     
 yo se que tu no fallaras 

A|--------7--7--2-2-2--      
 se que tu me ayudaras 

E|------3---3--3-----0-0------5-5-|    
 que conoces lo mas hondo de mi


A|----5-5---5-5--5---7---7-7----2-2---2---3--3-3----------5-5--|
E|3-3--------------------------------------------5--5-5--------|
 Dame   un poco de calma para pensar que tu Señor todo lo harás

A|------5-5---5-5--5---7--7--7---2--2-----|
E|3-3-3-----------------------------------| 
 dame  un poco mas de amor para tener

E|------3---3--3--0-0----5-5-|    
 para dar para hacerlo crecer

A|---5--5---5--8-----5--5-5-|             
 Pues se que tu no fallaras

A|------7--7------2---2--2---3-3----0--0-----0---0------5---5--5-|     
 se que tu, tu lograras terminar la obra que  has empezado en mi


A|------5-5---5-5--5---7--7--7---2--2-|
E|3-3-3-------------------------------| 
 Ayúdame, mira que sin ti nada soy

A|--2---2--2---2---2---2--2--2----3-|
 Mira que sin ti me doy por vencido 
   
A|----0--0-5--8-8--8-|
 Sin podeeeer seguir 

A|------5-5---5-5--5--5-5--5-|
E|3-3-3----------------------|
 Pues se que tu no fallaras

A|-------2---2-2--2--2-3--3-3-3--|
 se que tu, tu no lo harás Señor
A|-------0---0-0--5---5---5--5--8-8-|
 se que todo de ti depende yo de ti

A|3--3--3-8-8----5--5--5---7---7---2--2-|
 Guiame, soy un saco sin fuerzas sin ti

A|3--3--3-0-0-0--5--5--8--8-8-|
 Sin ti nooooo Podré seguir
Suggest correction
Give kudos to tab author, rate the tab!
1 2 3 4 5
comments
print report bad tab
guest
You may want to rate the tab now too:
select rating
Wanna post a correction for this tab? Suggest correction