Oops, an error
Loading. Please wait.

Dios Bass

15 views 1 this week
no commentswrite comment
1 2 3 4 5
3 more votes to show rating
add to favorites
launch autoscroll
font size
0
reset
guitar tuner
×
Best way to learn
"Dios"
Autoscroll
slow
fast
+/-
esc
set tempo
stop
                                DIOS
A|--------------5---5-5----------|
E|3--3---3-3--------------3--3-3-|
 He escuchado tanto sobre tí,

A|----------------5--5--5-5--------|
E|3--3-3---3--3--------------3-3-3-|
 mil expertos que te llaman Dios,

A|---------------0----0--0----3--3-3--5-5-5-|     
 y nos dan las reglas, de como encontrarte.

A|--------------5---5-5----------|
E|3--3---3-3--------------3--3-3-|
 Tanto requisito que al final,

A|----------------5--5--5-5--------|
E|3--3-3---3--3--------------3-3-3-|              
 no hay forma de poderte alcanzar;

A|--------------5---5-5----------|
E|3--3---3-3--------------3--3-3-|
 y te voy buscando a mi manera,

A|----------------5--5--5-5--------|
E|3--3-3---3--3--------------3-3-3-| 
 no lo niego puede que no sea, 

A|3--3--3--5-5-5--5-|
 pero es sincera.

A|--------------5---5-5----------|
E|3--3---3-3--------------3--3-3-|
 Hoy le grito al cielo si es que hay,

A|----------------5--5--5-5--------|
E|3--3-3---3--3--------------3-3-3-|             
 hoy me ariesgo, nada pierdo ya

A|3--3--3--5-5-5--5-|
 busco respuesta.

CORO:

A|--5--5---5--5--5--5-5-7-7-2--2-2-|
E|3--------------------------------|
 Dios, te he estado buscando,

A|---------3--3-3--3--3---0-0--0-0--0----5-5--5-|   
 aún sin saberlo, algo de mi te está llamando.

A|--5--5---5--5---5-5-7-7-2--2-2-|
E|3------------------------------|
 Dios, estoy en la lucha,

A|-------3--3-3--3--3---0-0--0-0--0----5-5--5-|          
 no quiero ser solamente uno más que busca.

A|--5--5---5--5---5-5-7-7-2--2-2-|
E|3------------------------------|   
 ¡oh Dios!, dime si me escuchas

A|---------3--3-3--3--3---0-0--0-0--0----5-5--5-5-|   
 son tantas las voces que ya no entiendo a ninguna.

A|--5--5---5--5---5-5-7-7-2--2-2-|
E|3------------------------------|  
 ¡oh Dios!, ¿De veras existes?

A|---------3--3-3--3--3---0-0--0-0--0----5-5--5-|             
 o eres un invento de unos locos que lo dicen.

A|--5--5---5--5--5--5-5-7-7-2--2-2-|
E|3--------------------------------|
 Dios, ¿En donde te encuentras?

A|3--3--3--5-5-5--5-| 
 Grita mi corazón...


A|--------------5---5-5----------|
E|3--3---3-3--------------3--3-3-|
 Soy bastante terco, ya lo ves,

A|----------------5--5--5-5--------|
E|3--3-3---3--3--------------3-3-3-|        
 con heridas fuertes en la fe,

A|----------0--0-0---3--3-3--5-5-5-|        
 tuve mil maestros, para no creer.

A|--------------5---5-5----------|
E|3--3---3-3--------------3--3-3-|
 Y eso es solamente la mitad,

A|--------------5---5-5----------|
E|3--3---3-3--------------3--3-3-|             
 hoy me dicen que quieres amarme.

A|----------------5--5----------|
E|3--3-3---3--3----------3-3-3--|   
 Si creer en ti casi no puedo,

A|---------------5---5-5--5---------|
E|3--3---3-3-----------------3--3-3-|            
 al pensar que me amas, yo me enredo,

A|3--3--3--5-5-5--5-|
 te soy sincero.

A|--------------5---5-5----------|
E|3--3---3-3--------------3--3-3-|
 Hoy le pido al cielo si es que hay,

A|---------------5---5-5--5---------|
E|3--3---3-3-----------------3--3-3-|     
 que se tome el tiempo de escucharme

A|3--3--3--5-5-5--5-|
 yo aquí lo espero.


MI RECOMENDACION ES QUE ESCUCHEN LA CANCION Y SE ACOMODEN EN LOS TIEMPOS

ATTE: UN AMIGO    'CHRISTIAN'

DUDAS Y/O COMENTARIOS 
ACORDE_49@
Suggest correction
Give kudos to tab author, rate the tab!
1 2 3 4 5
comments
print report bad tab
guest
You may want to rate the tab now too:
select rating
Wanna post a correction for this tab? Suggest correction