Oops, an error
Loading. Please wait.

Eso Es Amor Chords

19 views 1 this week
no commentswrite comment
1 2 3 4 5
3 more votes to show rating
add to favorites
launch autoscroll
font size
0
reset
transpose
0
reset
simplify chords
display chords
guitar tuner
Autoscroll
slow
fast
+/-
esc
set tempo
stop
Help us to improve Ultimate-Guitar.com Take our survey!
×
Nadie ama más que aquel que da la vida por sus amigos


intro


G6-7      C-E3      G6-7
De que me sirve a mí
               C-E3
tener toda la sabiduría,
G6-7             C-E3
saber todas las cosas,
G6-7            C-E3    G6-7  C-E3
tener toda la filosofía.


G6-7      C-E3       G6-7
De que me sirve a mí,
                  C-E3
dar de comer a un viejo hambriento,
    G6-7        C-E3
o bien, dar mi cuerpo
      G6-7         C-E3
para ser quemado o unido al viento,
Am       F              G
si no tengo lo más importante:

    G6-7    C-E3
el amor.
    G6-7    C-E3
el amor.

G6-7     C-E3

G6-7        C-E3        G6-7
Un amor que no se dice,
           C-E3
es un amor que se vive,
G6-7        C-E3     G6-7
un amor que sabe dar
          C-E3           G6-7
mucho más de lo que pide.


               C-E3         G6-7
Es un amor que no se compra,
               C-E3         G6-7
pero se lleva sobre la frente,
               C-E3         G6-7
es un amor que no le importa,

morir clavado
    C-E3
en cruz de muerte.
Am       F              G
Si      eso es lo más importante:
    G6-7   C-E3
el amor
    G6-7   C-E3
el amor

G6-7          C-E3

 Final?..

Cmaj7   A#maj7    G#maj7  G


intro

E-----0-0----0--------0---------0--0------------0-------
B-----3-3-------3-------3-------3--3--------------3-----
G-----3-3----------3------3-----3--3---------3------3---
D------------------------------------------2------------
A----------------------------------------3--------------
E--3--------------------------3-------------------------
esto por dos veces


Acordes


esta es: G6-7

  9       8       7       6        5        4        3       2         1
------  ------  ------  ------   ------   ------   --0---  ------   ------
------  ------  ------  ------   ------   ------   ------  --0---   ------
------  ------  ------  ------   ------   ------   ------  ------   ------
------  ------  ------  ------   ------   ------   --0---  ------   ------
------  ------  ------  ------   ------   ------   --0---  ------   ------
------  ------  ------  ------   ------   ------   ------  ------   ------


esta es: Cmaj7

  9       8       7       6        5        4        3       2         1
------  --0---  ------  ------   ------   ------   ------  ------   ------
------  ------  ------  ------   ------   ------   ------  ------   ------
--0---  ------  ------  ------   ------   ------   ------  ------   ------
--0---  ------  ------  ------   ------   ------   ------  ------   ------
------  --0---  ------  ------   ------   ------   ------  ------   ------
------  ------  ------  ------   ------   ------   ------  ------   ------


esta es: C-E3

  9       8       7       6        5        4        3       2         1
------  ------  ------  ------   ------   ------   ------  ------   ------
------  ------  ------  ------   ------   ------   --0---  ------   ------
------  ------  ------  ------   ------   ------   ------  --0---   ------
------  ------  ------  ------   ------   ------   --0---  ------   ------
------  ------  ------  ------   ------   ------   --0---  ------   ------
------  ------  ------  ------   ------   ------   ------  ------   ------


esta es: A#maj7

  9       8       7       6        5        4        3       2         1
------  ------  ------  --0---   ------   ------   ------  ------   ------
------  ------  ------  ------   ------   ------   ------  ------   ------
------  ------  --0---  ------   ------   ------   ------  ------   ------
------  ------  --0---  ------   ------   ------   ------  ------   ------
------  ------  ------  --0---   ------   ------   ------  ------   ------
------  ------  ------  ------   ------   ------   ------  ------   ------


esta es: G#maj7

  9       8       7       6        5        4        3       2         1
------  ------  ------  ------   ------   --0---   ------  ------   ------
------  ------  ------  ------   ------   ------   ------  ------   ------
------  ------  ------  ------   --0---   ------   ------  ------   ------
------  ------  ------  ------   --0---   ------   ------  ------   ------
------  ------  ------  ------   ------   --0---   ------  ------   ------
------  ------  ------  ------   ------   ------   ------  ------   ------
Suggest correction
Give kudos to tab author, rate the tab!
1 2 3 4 5
comments
print report bad tab
guest
You may want to rate the tab now too:
select rating
Wanna post a correction for this tab? Suggest correction