Oops, an error
Loading. Please wait.

La Fuga Bass

15 views 1 this week
no commentswrite comment
1 2 3 4 5
3 more votes to show rating
add to favorites
launch autoscroll
font size
0
reset
guitar tuner
×
Best way to learn
"La Fuga"
Autoscroll
slow
fast
+/-
esc
set tempo
stop
          FUGA     
A|---------------5-3--------|
E|3-3--3--3-3--3-----3--3-3-|
 Un grupo de gente regular

A|0-0---0-0--0-3--3---3-3-5-5-|
 Cansados de vivir asi no mas

A|---------------------5-3--------|
E|3-3--3--3-3--3-3--3-3----3--3-3-|  
 Se fueron por un sendero al mar

A|0-0---0-0--0-3--3-3--3-3-3-5-5-|
 Dejaron las ciudades por atrás
 
CORO:

A|0-0--0--0-0--0-0-0-7-5-0-0-0-|
 Y cantan, y cantan sin cesar

A|---2--2---2----2--2--5---5-5---5---7-7--7-|
 Al Dios que hizo la tierra y sus montañas

A|-2--2-2-2--2--2-------------|
E|-----------------1-0-2--2-2-| 
 No paran, no cesan de gozar

A|---4---4-4---4--4---4-4---4-------2-2-|
E|-----------------------------0--1-----|
 Al fin han descubierto amar la vi??da
   

A|---------------5-3--------|
E|3-3--3--3-3--3-----3--3-3-|
 La gente los mira al pasar

A|0-0---0-0--0-3--3--3-3-3-5-5-| 
 Saben bien que nunca volveran

A|---------------------5-3--------|
E|3-3--3--3-3--3-3--3-3----3--3-3-|
 Dicen que son locos al cantar

A|0-0---0-0--0-3--3-3--3-3-3-5-5-|
 Si loco es el feliz lo seguiran
Suggest correction
Give kudos to tab author, rate the tab!
1 2 3 4 5
comments
print report bad tab
guest
You may want to rate the tab now too:
select rating
Wanna post a correction for this tab? Suggest correction