Oops, an error
Loading. Please wait.

Los Viejos Amigos Bass Tab

11 views 1 this week
no commentswrite comment
1 2 3 4 5
3 more votes to show rating
add to favorites
launch autoscroll
font size
0
reset
guitar tuner
Autoscroll
slow
fast
+/-
esc
set tempo
stop
Help us to improve Ultimate-Guitar.com Take our survey!
×
E|-5---5----5--5--0--0--0--0---|  
 Quiero evocar hoy en un canto

A|----------------------5--5-|
E|2----2--2--2---2--2--2-----|
 quiero entonar mi canción

A|5--5-5---------------5--5-|
E|-------2--2---2--2--2-----|     
 para aquellos que una vez

A|-5---5-5-5-5--5-----|
E|--------3------0-0--|   
 junto a mi caminaron

A|-----------------------|
E|5---5-5--0---0--0--2-2-| 
 Hoy canto a su amistad

A|-----5--5---5-5----------5----|
E|----------------0--0--0----0--|
 las luchas que juntos peleamos

A|--------------------5-5-|
E|--2--2--2---2--2--2-----| 
 momentos de gozo y dolor

A|------------5--5-------|
E|-----0-----0------5-0--|  
 que viven en el corazón


E|------5--5-5-0---0--0--2--2---2--|    
 LOS VIEJOS AMIGOS NO QUEDAN ATRAS

A|5--5---5---------------|
E|----------5--5---5--0--|
 SIGUEN VIVIENDO HOY AUN

A|------------------------------------5-5-|
E|------5--5---5--0---0--0--2--2---2------| 
 ELLOS SABEN QUE TIENEN GUARDADO UN LUGAR

E|0---0--0--0----0---5-5--0-0-| 
 MUY DENTRO DE MI CORAZON

E|------5--5-5-0---0--0--2--2---2--2---|    
 LOS VIEJOS AMIGOS SON ROSTROS DE AYER

A|5--5---5--5--5-------------|
E|--------------5--5---5--0--|     
 QUE LLEVAN LA MENTE A VOLAR
 
A|---------------------------------5-5-|
E|------5--5---5--0---0--0--2--2-------|     
 Y NOS TRAEN RECUERDOS QUE HACEN PENSAR

E|--------0---0---0--0---0--5--|       
 QUE HA VALIDO LA PENA EL AMAR


Hay parte de mi que no morirá
esta sentenciada a vivir
es la parte que se dio
es la parte que a otros amó
¡Cuánto nos cuesta entender
el valor de las cosas que amamos!
amemos, no vaya a ser
amemos antes de perder

LOS VIEJOS AMIGOS NO QUEDAN...

A|------------------------------------5-5-|
E|------5--5---5--0---0--0--2--2---2------|  
 Y tú, gran amigo, el más viejo y más fiel

E|---2--2--2--2---2----0--0--|  
 de ti yo aprendí la amistad

A|------------------------------------5-5-|
E|------5--5---5--0---0--0--2--2---2------|      
 y lo canto, y lo grito, que se sepa bien

E|0---0--0--0----0---5-5--0-0-|     
 ¡mi Dios es mi amigo más fiel!
Suggest correction
Give kudos to tab author, rate the tab!
1 2 3 4 5
comments
print report bad tab
guest
You may want to rate the tab now too:
select rating
Wanna post a correction for this tab? Suggest correction