Oops, an error
Loading. Please wait.

Padre Nuestro Bass Tab

19 views 1 this week
no commentswrite comment
1 2 3 4 5
3 more votes to show rating
add to favorites
launch autoscroll
font size
0
reset
guitar tuner
Autoscroll
slow
fast
+/-
esc
set tempo
stop
Help us to improve Ultimate-Guitar.com Take our survey!
×
                            PADRE NUESTRO


A|--------------3--3--3--3-------3----| 
E|3-3-3--3--3-3--------------3-3----3-|
 Padre nuestro  que estás en el cielo

A|------------3--3-3---------|
E|---0--0--0----------3--3-3-|     
 Santificado sea tu nombre

E|0----0-0--0--0--0--0--5-5--5-|
 Venga  a nosotros  tu reino 

A|----3--3--3--3-5--5-5-| 
 Y hágase tu voluntad


A|-----------------3--3--3--3---3--| 
E|3-3-3--3--3-3--3-----------3-3-3-|     
 Así en la tierra como en el cielo

A|----------------------------5--5--|
E|-5--5---5--5-5--5---5--5--5-------|      
 Danos hoy nuestro pan de cada día

A|----------------------------5--5--|
E|-5--5---5--5-5--5---5--5--5-------|   
 Perdó...nanos    como  perdonamos

A|0---0--0-0-3----5-5-|
 A los que nos ofenden

A|5--5-5-----------------------3--3-| 
E|--------3--3-3--3--3-0--0--0------|    
 No nos dejes caer en la tentación

A|----------------5-5|
E|3--3--0--0--5-5----|
  Y líbranos del mal 

E|3-3-|
 AMEN


echenle muchas ganas
Suggest correction
Give kudos to tab author, rate the tab!
1 2 3 4 5
comments
print report bad tab
guest
You may want to rate the tab now too:
select rating
Wanna post a correction for this tab? Suggest correction