Oops, an error
Loading. Please wait.

Un Regalo De Dios Tab

16 views 1 this week
no commentswrite comment
1 2 3 4 5
3 more votes to show rating
add to favorites
launch autoscroll
font size
0
reset
how to read this tab
guitar tuner
Autoscroll
slow
fast
+/-
esc
set tempo
stop
Intro:
   Em        G                      D         A         Em
E||-3-----2-3-3-------3-------3-2-0---0-2-0------------2-5-|
B||---0-3---------0-3-----0-3-------3------------2-3-5-----|
G||------------------------------------------2-4-----------|
D||--------------------------------------------------------|
A||--------------------------------------------------------|
E||--------------------------------------------------------|

           G              D              A
E||--3-0-2-3-3-----3-----3-2-0---0-2-0------------2-3-5-|
B||------------0-3---0-3-------3------------2-3-5-------|
G||-------------------------------------2-4-------------|
D||-----------------------------------------------------|
A||-----------------------------------------------------|
E||-----------------------------------------------------|


D
Del jardín del señor
      D#6            Em    A
una hermosa flor he tomado
        Em
y sin pensarlo yo,
     A          D     Em  A
la mejor me ha tocado
 D           D#6          Em     A
En mi corazón ahi la he guardado
      Em            A         D      Am  D7
En un lugar que mi Dios ha preparado


 G     A      F#m     Bm
Un regalo de Dios esperado
    Em              A        Am  D7
Eso eres tú,   pequeña flor
G          A        F#m      Bm
Y hoy que te tengo en mi corazón
      Em            A
Dios me enseña a quererte
         D     Em
Cada día mas.


F#m       Fm   Em
Un regalo de Dios
     A
Eso eres tú
F#m       Fm   Em   A
Un regalo de Dios


   Em        G                      D         A         Em
E||-3-----2-3-3-------3-------3-2-0---0-2-0------------2-5-|
B||---0-3---------0-3-----0-3-------3------------2-3-5-----|
G||------------------------------------------2-4-----------|
D||--------------------------------------------------------|
A||--------------------------------------------------------|
E||--------------------------------------------------------|

           G              D              A
E||--3-0-2-3-3-----3-----3-2-0---0-2-0------------2-3-5-|
B||------------0-3---0-3-------3------------2-3-5-------|
G||-------------------------------------2-4-------------|
D||-----------------------------------------------------|
A||-----------------------------------------------------|
E||-----------------------------------------------------|


D           D#6          Em     A
En mi corazón ahi la he guardado
      Em            A         D      Am  D7
En un lugar que mi Dios ha preparado


 G     A      F#m     Bm
Un regalo de Dios esperado
    Em              A        Am  D7
Eso eres tú,   pequeña flor
G          A        F#m      Bm
Y hoy que te tengo en mi corazón
      Em            A
Dios me enseña a quererte
         D     Em
Cada día mas.


F#m       Fm   Em
Un regalo de Dios
     A
Eso eres tú
F#m       Fm   Em   A
Un regalo de Dios  (Pequeña flor)

Final:
D Em G D


Saludos:
TODOS los hombres se mueren... NO TODOS los hombres viven...¡¡VIVE!!
Suggest correction
Give kudos to tab author, rate the tab!
1 2 3 4 5
comments
print report bad tab
guest
You may want to rate the tab now too:
select rating
Wanna post a correction for this tab? Suggest correction