Oops, an error
Loading. Please wait.

How I Feel Tab

1,122 views 1 this week
no commentswrite comment
1 2 3 4 5
please rate
add to favorites
launch autoscroll
font size
0
reset
how to read this tab
guitar tuner
Autoscroll
slow
fast
+/-
esc
set tempo
stop
Help us to improve Ultimate-Guitar.com Take our survey!
×
Intro/Verse:
Guitar 1: (slight distortion)
E]--------------------------------------------------|
B]--------------------------------------------------|
G]--------------------------------------------------|
D]9--9--9--7--9--9b10b9--7--4--4--4--2--0--2--4--5--|
A]--------------------------------------------------|
E]--------------------------------------------------|
 repeat 4x

Guitar 2: (come in at 0:12)

E]----------------3-3-3-3-3-3-3-3------------------|
B]3-3-3-3-3-3-3-3-3-3-3-3-3-3-3-3------------------|
G]0-0-0-0-0-0-0-0-0-0-0-0-0-0-0-0------------------|
D]2-2-2-2-2-2-2-2-0-0-0-0-0-0-0-0------------------|
A]3-3-3-3-3-3-3-3-2-2-2-2-2-2-2-2------------------|
E]----------------3-3-3-3-3-3-3-3------------------|

 repeat 3x

Pre-Chorus:
Guitar 1:

E]------------------------------------------------------|
B]------------------------------------------------------|
G]----------------------------5-5-5-5-5-5-5-5-7-7-7-7-7-|
D]1-1-1-1-1-1-1-1-1-1-1-1-1-0-5-5-5-5-5-5-5-5-7-7-7-7-7-|
A]1-1-1-1-1-1-1-1-1-1-1-1-1-0-3-3-3-3-3-3-3-3-5-5-5-5-5-|
E]0-0-0-0-0-0-0-0-0-0-0-0-0-----------------------------|

Guitar 2:

E]--------------------------------------------2-2-2-2-2-|
B]----------------------------3-3-3-3-3-3-3-3-3-3-3-3-3-|
G]----------------------------0-0-0-0-0-0-0-0-2-2-2-2-2-|
D]1-1-1-1-1-1-1-1-1-1-1-1-1-0-2-2-2-2-2-2-2-2-0-0-0-0-0-|
A]1-1-1-1-1-1-1-1-1-1-1-1-1-0-3-3-3-3-3-3-3-3-----------|
E]0-0-0-0-0-0-0-0-0-0-0-0-0-----------------------------|

Chorus (repeat 2x)
Guitar 1:

E]--------------------------------------------------------|
B]--------------------------------------------------------|
G]------------------------------------------5-5-5-5-5-5-5-|
D]5-5-5-5-5-5-5-4-4-4-4-4-4-4-1-1-1-1-1-1-1-5-5-5-5-5-5-5-|
A]5-5-5-5-5-5-5-5-5-5-5-5-5-5-1-1-1-1-1-1-1-3-3-3-3-3-3-3-|
E]3-3-3-3-3-3-3-2-2-2-2-2-2-2-0-0-0-0-0-0-0---------------|

Guitar 2:

E]3-3-3-3-3-3-3-------------------------------------------|
B]3-3-3-3-3-3-3-3-3-3-3-3-3-3---------------3-3-3-3-3-3-3-|
G]0-0-0-0-0-0-0-0-0-0-0-0-0-0---------------0-0-0-0-0-0-0-|
D]0-0-0-0-0-0-0-0-0-0-0-0-0-0-1-1-1-1-1-1-1-2-2-2-2-2-2-2-|
A]2-2-2-2-2-2-2-0-0-0-0-0-0-0-1-1-1-1-1-1-1-3-3-3-3-3-3-3-|
E]3-3-3-3-3-3-3-2-2-2-2-2-2-2-0-0-0-0-0-0-0---------------|

Bridge: same as chorus

Repeat chorus
Suggest correction
Give kudos to tab author, rate the tab!
1 2 3 4 5
comments
print report bad tab
guest
You may want to rate the tab now too:
select rating
Wanna post a correction for this tab? Suggest correction