Oops, an error
Loading. Please wait.

Independence Day Bass Tab

version 1
version 1

Whole song

  • This song peaked at number 12 on the Hot Country Songs in 1994.

Interactive

7 views 1 this week
no commentswrite comment
1 2 3 4 5
3 more votes to show rating
add to favorites
launch autoscroll
font size
0
reset
guitar tuner
Autoscroll
slow
fast
+/-
esc
set tempo
stop
Help us to improve Ultimate-Guitar.com Take our survey!
×
Author
Difficulty
novice
About this tab version
This song peaked at number 12 on the Hot Country Songs in 1994. Was this info helpful? Yes No
  [Intro]
G|----------------|----------------|----------------|----------------|
D|----------------|0-------------2-|--------------0-|0---------------|
A|0---------------|----------------|0---------------|--------------2-|
E|----------------|----------------|----------------|----------------|

  [Verse]
G|----------------|----------------|----------------|----------------|
D|----------------|0---------------|----------------|0---------------|
A|0---------------|----------------|0-------------0-|----------------|
E|----------------|----------------|----------------|----------------|

G|----------------|----------------|----------------|----------------|
D|----------------|0---------------|2---------------|--------------0-|
A|0---------------|--------0-------|----------------|----------------|
E|----------------|----------------|----------------|----------------|

G|----------------|----------------|----------------|----------------|
D|----------------|0---------------|----------------|0-------------2-|
A|0-------------4-|----------------|0-------------4-|----------------|
E|----------------|----------------|----------------|----------------|

G|----------------|----------------|----------------|----------------|
D|4---------------|0---------------|2-------------2-|--------------0-|
A|----------------|--------0-------|----------------|0-----0-0-------|
E|----------------|----------------|----------------|----------------|

G|----------------|----------------|----------------|
D|------0-0-0-----|--------------0-|--------0-------|
A|----------------|0-----0-0-------|------0-----2---|
E|------------2---|----------------|----------------|

  [Verse]
G|----------------|----------------|----------------|----------------|
D|----------------|0-----0-0-0-----|----------------|0-----0-0-0-----|
A|0-----0-0-0-----|----------------|0-----0-0-0-----|----------------|
E|----------------|----------------|----------------|----------------|

G|----------------|----------------|----------------|----------------|
D|----------------|0-------------2-|----2---2-----2-|--2-2-2-2---0---|
A|0-----0-0-0-0-0-|----2---0---4---|----------------|----------------|
E|----------------|----------------|----------------|----------------|

G|----------------|----------------|----------------|----------------|
D|----------------|0-----0-0-------|----------------|0-----0-0---2---|
A|0---------------|----------------|0---------------|----------------|
E|----------------|----------------|----------------|----------------|

G|----------------|----------------|----------------|----------------|
D|4-----4-4---4---|0-------------2-|2-----2-2-------|----------------|
A|----------------|----2---0---4---|----------------|0-----0-0-----0-|
E|----------------|----------------|------------4---|----------------|

  [Chorus]
G|----------------|----------------|----------------|----------------|
D|----------------|2-----2-2-2---2-|--2---2-2-2---2-|4-----4-4-----4-|
A|0---------------|----------------|----------------|----------------|
E|----------------|----------------|----------------|----------------|

G|----------------|----------------|----------------|----------------|
D|4-----4-4---2---|0-------0-------|----------------|----------------|
A|----------------|------0-------2-|0-----0-0---4---|----------------|
E|----------------|----------------|----------------|0-----0-----0---|

G|----------------|----------------|----------------|----------------|
D|----------------|----------------|----------------|0-------0-------|
A|----4-----------|----------------|----------------|------0-------0-|
E|0-------0---1---|2-----2-2-----0-|2---2---2---0---|----------------|

G|----------------|----------------|----------------|----------------|
D|0-------0-------|----------------|----------------|--------------0-|
A|------0-----4---|0-----0-0-------|----------------|0-----0-0-0-----|
E|----------------|------------0---|0---------------|----------------|

G|----------------|----------------|----------------|
D|------0-0-------|--------------0-|------0---------|
A|----------------|0-----0-0-0-----|--------0-------|
E|------------2---|----------------|------------2---|

[Verse]
G|----------------|----------------|----------------|----------------|
D|----------------|0-----0-0-0-----|----------------|0-----0-0-0-----|
A|0-----0-0-0-----|----------------|0-----0-0-0-----|----------------|
E|----------------|----------------|----------------|----------------|

G|----------------|----------------|----------------|----------------|
D|----------------|0-------------2-|----2---2-----2-|--2-2-2-2---0---|
A|0-----0-0-0-0-0-|----2---0---4---|----------------|----------------|
E|----------------|----------------|----------------|----------------|

G|----------------|----------------|----------------|----------------|
D|----------------|0-----0-0-------|----------------|0-----0-0---2---|
A|0---------------|----------------|0---------------|----------------|
E|----------------|----------------|----------------|----------------|

G|----------------|----------------|----------------|----------------|
D|4-----4-4---4---|0-------------2-|2-----2-2-------|----------------|
A|----------------|----2---0---4---|----------------|0-----0-0-----0-|
E|----------------|----------------|------------4---|----------------|

  [Chorus]
G|----------------|----------------|----------------|----------------|
D|----------------|2-----2-2-2---2-|--2---2-2-2---2-|4-----4-4-----4-|
A|0---------------|----------------|----------------|----------------|
E|----------------|----------------|----------------|----------------|

G|----------------|----------------|----------------|----------------|
D|4-----4-4---2---|0-------0-------|----------------|----------------|
A|----------------|------0-------2-|0-----0-0---4---|----------------|
E|----------------|----------------|----------------|0-----0-----0---|

G|----------------|----------------|----------------|----------------|
D|----------------|----------------|----------------|0-------0-------|
A|----4-----------|----------------|----------------|------0-------0-|
E|0-------0---1---|2-----2-2-----0-|2---2---2---0---|----------------|

G|----------------|----------------|----------------|----------------|
D|0-------0-------|----------------|----------------|--------------0-|
A|------0---------|0-----0-0-------|----------------|0-----0-0-0-----|
E|------------2---|------------0---|0---------------|----------------|

                                    [Ending]
G|----------------|----------------|----------------|
D|------0-0-------|--------------0-|------0-0---2---|
A|----------------|0-----0-0-0-----|--------------0-|
E|------------2---|----------------|----------------|

G|----------------|----------------|----------------|
D|--------------0-|------0---------|----------------|
A|0-----0-0-0-----|--------0-------|0---------------|
E|----------------|------------2---|----------------|

Key of A Major, 3 sharps. 
Suggest correction
Give kudos to tab author, rate the tab!
1 2 3 4 5
comments
print report bad tab
guest
You may want to rate the tab now too:
select rating
Wanna post a correction for this tab? Suggest correction