Oops, an error
Loading. Please wait.

Valley Of Eternity tab

version 1
version 1

Whole song

Interactive

11,357 views 9 this week
no commentswrite comment
1 2 3 4 5
x 6
add to favorites
×
Save as Personal and add changes to this tab that will be seen only by you. Learn more ›
×
You can save this tab as Personal to edit and correct it or add notes. All changes will be seen only by you. Learn more »
launch autoscroll
font size
0
reset
how to read this tab
guitar tuner
backing track
0:00
0:00
edit
Autoscroll
slow
fast
+/-
esc
set tempo
stop
Author
This was not made by me, I found it on Marty's official website.
--------------------------------------------

Marty Friedman - Valley Of Eternity - Scenes
Tabbed by: Avishay Mizrav

h - Hammer on
p - Pull off
b - Bend ( also ^ )
s - Slide ( also / )
* - Block with right hand


[Intro]

E|---------------------------------------------------|
B|---------------------------------------------------|
G|-------------4-------4-7-5-----5-------------------|
D|-----2--4s5--------5---------7---6b--7p5-7-7b-5----|
A|---2------------7----------7--------------------7--|
E|-0-------------------------------------------------|

E|---------------------------------------------------------------------|
B|---------------------------------------------------------------------|
G|-------4--------4--7p5----5---------7-8h9p8p7--9-8-7-----------------|
D|--4s5--------5----------7---8b-9-10-------------------10-9-8-9-10-9--|
A|----------7----------------------------------------------------------|
E|---------------------------------------------------------------------|

E|---------------------------------------------------------------------|
B|---------------------------------------------------------------------|
G|----------------9------12-14-14s16-12----13b-12h14-12s9-12-9h12p9s7--|
D|-----9-------9----9s12----------------14-----------------------------|
A|-7s9---9h10----------------------------------------------------------|
E|---------------------------------------------------------------------|

E|--------------------------10--10s14--14s9--9--|
B|-----8-10s12-10s8----------8---8s12--12s7--7--|
G|-7h9--------------9-7-7h9---------------------|
D|----------------------------------------------|
A|----------------------------------------------|
E|----------------------------------------------|

E|---------------------------------------------------|
B|---------------------------------------------------|
G|-------------4-------4-7-5-----5-------------------|
D|-----2--4s5--------5---------7---6b--7p5-7-7b-5----|
A|---2------------7----------7--------------------7--|
E|-0-------------------------------------------------|

E|---------------------------------------------------------------------|
B|---------------------------------------------------------------------|
G|-------4--------4--7p5----5---------7-8h9p8p7--9-8-7-----------------|
D|--4s5--------5----------7---8b-9-10-------------------10-9-8-9-10-9--|
A|----------7----------------------------------------------------------|
E|---------------------------------------------------------------------|

E|---------------------------------------------------------------------|
B|---------------------------------------------------------------------|
G|----------------9------12-14-14s16-12----13b-12h14-12s9-12-9h12p9s7--|
D|-----9-------9----9s12----------------14-----------------------------|
A|-7s9---9h10----------------------------------------------------------|
E|---------------------------------------------------------------------|

E|---------------------------|
B|-----8-10s12-10s8----------|
G|-7h9--------------9-7-7h9--|
D|---------------------------|
A|---------------------------|
E|---------------------------|

E|-14-12-10------------14-12-10----10------------14-12~-12~-12~-12~----------|
B|----------12--12--------------12----12--12---------------------------------|
G|--------------12--11--------------------12--11-----------------------------|
D|------------------14------------------------14------------------------/14--|
A|---------------------------------------------------------------------------|
E|---------------------------------------------------------------------------|


[Rythem through keyboard solo]

E|---------3-----------------3-----------------2----------------2--------|
B|-----0-----0---0------0------0---0-------3-----3---3------3-----3---3--|
G|---0---0-----0------0---0------0-------2---2-----2------2---2-----2----|
D|------------------------------------0-----------------0----------------|
A|-----------------------------------------------------------------------|
E|-3----------------3----------------------------------------------------|

E|---------0----------------0----------------2----------------2----------|
B|-----0-----0---0------0-----0---0------3-----3---3------3------3----3--|
G|---0---0-----0------0---0-----0------2---2-----2------2---2-------2----|
D|-----------------------------------0----------------0------------------|
A|-----------------------------------------------------------------------|
E|-0----------------0----------------------------------------------------|

E|---------0----------------0------------------2----------------0--------|
B|-----0-----0---0--------1---1------------3-----3---3--------1---1------|
G|---0---0-----0--------2-------2--------2---2-----2--------2-------2----|
D|--------------------2-----------2----0------------------2-----------2--|
A|------------------0-----------------------------------0----------------|
E|-0---------------------------------------------------------------------|

E|----------------------0------------3---------|
B|--------------1-----1--------1-----0---------|
G|------0-----0-----0--------0---0---0---------|
D|----2-----2--------------2---------0---------|
A|--3-----3------3-------3-----------2---------|
E|-----------------------------------3---------|


[Solo #1:]

E|------------------------------------------------------------|
B|------------------------------------------------------------|
G|-4-5-7--7-7-7--5-4-5-4--------4-5-4-5-4h5p4-----------------|
D|------------------------5-5-7----------------7-5--5h7p5s4---|
A|------------------------------------------------------------|
E|------------------------------------------------------------|

E|---------------------------------------------7h10p7--------------|
B|----------------------------------8-8h10--10--------10--8--8h10--|
G|---------4--4h5h7-9h12p9s7b-9--/9--------------------------------|
D|----5h7----------------------------------------------------------|
A|--5--------------------------------------------------------------|
E|-----------------------------------------------------------------|

E|--------10-12~-12~-12~-12-14-12h14p12p10----10--------------|
B|--12-12----------------------------------12-----12p10-12----|
G|------------------------------------------------------------|
D|------------------------------------------------------------|
A|------------------------------------------------------------|
E|------------------------------------------------------------|

E|----10--12-14--12h14p12p10----10--------------|
B|-12------------------------12-----------------|
G|--------------------------------------12------|
D|----------------------------------/14---------|
A|----------------------------------------------|
E|----------------------------------------------|
                                 Sweep...
E|------------17~-17~--15p14-15----------------------------------|
B|--------15---------------------------*12-12--12h15--13p12--13--|
G|-----16---------------------------*12--------------------------|
D|--17---------------------------*14-----------------------------|
A|---------------------------------------------------------------|
E|---------------------------------------------------------------|

  Guitar 1
E|-----------------------------------14p12--12p10--10p7--7s10----|
B|-15p12--12p10--10p7--7s10--12-12-------------------------------|
G|---------------------------------------------------------------|
D|---------------------------------------------------------------|
A|---------------------------------------------------------------|
E|---------------------------------------------------------------|
 |Guitar 2
E|---------------------------------------------------------------|
B|-----------------------------------12p10--10p8----8p5--5s8-----|
G|-12p9---9p7---7p4---4s7---9---9--------------------------------|
D|---------------------------------------------------------------|
A|---------------------------------------------------------------|
E|---------------------------------------------------------------|

  Guitar 1
E|-/12-10h12p10h12p10h12p10h12p10h12p10h12p10--|
B|---------------------------------------------|
G|---------------------------------------------|
D|---------------------------------------------|
A|---------------------------------------------|
E|---------------------------------------------|
 |Guitar 2
E|---------------------------------------------|
B|--10--8-10--8-10--8-10--8-10--8-10--8-10--8--|
G|---------------------------------------------|
D|---------------------------------------------|
A|---------------------------------------------|
E|---------------------------------------------|


[Rythem through keyboard solo:]

E|---------3-----------------3-----------------2----------------2--------|
B|-----0-----0---0------0------0---0-------3-----3---3------3-----3---3--|
G|---0---0-----0------0---0------0-------2---2-----2------2---2-----2----|
D|------------------------------------0-----------------0----------------|
A|-----------------------------------------------------------------------|
E|-3----------------3----------------------------------------------------|

E|---------0----------------0----------------2----------------2----------|
B|-----0-----0---0------0-----0---0------3-----3---3------3------3----3--|
G|---0---0-----0------0---0-----0------2---2-----2------2---2-------2----|
D|-----------------------------------0----------------0------------------|
A|-----------------------------------------------------------------------|
E|-0----------------0----------------------------------------------------|

E|---------0----------------0------------------2----------------0--------|
B|-----0-----0---0--------1---1------------3-----3---3--------1---1------|
G|---0---0-----0--------2-------2--------2---2-----2--------2-------2----|
D|--------------------2-----------2----0------------------2-----------2--|
A|------------------0-----------------------------------0----------------|
E|-0---------------------------------------------------------------------|

E|----------------------0------------3---------|
B|--------------1-----1--------1-----0---------|
G|------0-----0-----0--------0---0---0---------|
D|----2-----2--------------2-------------------|
A|--3-----3------3-------3-----------2---------|
E|-----------------------------------3---------|


[Drum Break...]

  Guitar 1
E|-------------------------------------------------|
B|-------------------------------------------------|
G|-------------------------5-5-5-5-7-9-7h9p7p5-----|
D|--7--7--5-7s9--7s5--5s7-----------------------7--|
A|-------------------------------------------------|
E|-------------------------------------------------|
 |Guitar 2                                            X 2
E|--------------------------------------------------|
B|-10-10-8-10s12-10s8-8s10--5-5-5-5-6-8--6h8p6p5----|
G|-----------------------------------------------7--|
D|--------------------------------------------------|
A|--------------------------------------------------|
E|--------------------------------------------------|


[Solo #2:]
(Rythem Chords: C, Am, Dm, G, C, Am, Dm, Dm, Am, Em, Am, Fm, Dm, C, Bb, Bb, A)

E|----------------------------------------------------------------|
B|----------------------------------------------------------------|
G|-9-10-12-12-12-12-10-9b-----------9-9b-9-9b---------------------|
D|------------------------10--10h12------------12-10--10h12p10p9--|
A|----------------------------------------------------------------|
E|----------------------------------------------------------------|

E|-------------------------------------------------------15--------------|
B|----------------------------------------13-13h15-15s17----17-15s13-15--|
G|----------9-9h10-12-14h17p14-12b-14-/14--------------------------------|
D|----10s12--------------------------------------------------------------|
A|-10--------------------------------------------------------------------|
E|-----------------------------------------------------------------------|

E|-----15-17~-17~-17~-17-19-17h19p17p15----15------------|
B|-/17----------------------------------17-----17p15-17--|
G|-------------------------------------------------------|
D|-------------------------------------------------------|
A|-------------------------------------------------------|
E|-------------------------------------------------------|
                                                                   1 Step
E|-----15-17-19-17h19p17p15----15---------------------------17-20-20^-20^-|
B|--17----------------------17------------------------17-20---------------|
G|------------------------------------17h19-17--17-19---------------------|
D|--------------------------------/19-------------------------------------|
A|------------------------------------------------------------------------|
E|------------------------------------------------------------------------|
                           Sweep...
E|-20p17-20p17-------17p12-----------------------------8-12--12s15--|
B|-------------17s13-------13p10--------------------10--------------|
G|-------------------------------9----------------9-----------------|
D|---------------------------------10---------10--------------------|
A|------------------------------------12-7-12-----------------------|
E|------------------------------------------------------------------|

E|-17p13----------13-----------------------------------------------|
B|-------15p13-------15p13----12--15p13-----------13---------------|
G|-------------15----------15-----------15p12--------15p12-----12--|
D|---------------------------------------------15-----------15-----|
A|-----------------------------------------------------------------|
E|-----------------------------------------------------------------|

E|----------------------------------------------------------|
B|----------------------------------------------------------|
G|-15p12------------12--------------------------------------|
D|--------15p12---------15p12-----12--15p12----12-----------|
A|---------------15------------15-----------15----15p12-12--|
E|----------------------------------------------------------|


[Break:]

  Guitar 1
E|---------------------5----5--6----------|
B|--6h8p6p5-6-------6----6--------7-------|
G|----------------5------------------6----|
D|-------------7--------------------------|
A|----------------------------------------|
E|----------------------------------------|
 | Guitar 2
E|----------------------------------------|
B|-------------------------------2--------|
G|--5h7p5p4-5--------2--5--2--5----3------|
D|----------------3------------------4----|
A|-------------3--------------------------|
E|----------------------------------------|

  Guitar 1
E|------------------------------------------------------------------------|
B|------------------------------------------------------------------------|
G|--6p5-5s11--11----------------------------------------------------------|
D|----------------12-11-10--9-10-11--12-11-10--12-10-9--------------------|
A|---------------------------------------------------------/14-12-10-9----|
E|---------------------------------------------------------------------0--|
 | Guitar 2
E|------------------------------------------------------------------------|
B|--7p5-5s11--11----------------------------------------------------------|
G|----------------11-10-9---8-9-10--11-10-9--11-9-8-----------------------|
D|---------------------------------------------------------/9-7-5-4-2-----|
A|------------------------------------------------------------------------|
E|------------------------------------------------------------------------|


[Rythem for break part:]

E|----------------0-----------0--------------0-----------0--------|
B|--------------1---1-------1---1----------2---2-------2---2------|
G|------------2-------2---2-------2------3-------3---3-------3----|
D|-2-2-0----3-----------3-----------3--4-----------4-----------4--|
A|-------2--------------------------------------------------------|
E|----------------------------------------------------------------|

E|----------0------------------0-----------------0-----------------0--------|
B|------------0------------------0-----------------0-----------------0------|
G|-------2------2-----------3------3-----------2-----2-----------2-----2----|
D|-----3----------3-------4----------4-------3---------3-------3---------3--|
A|---3------------------4------------------3-----------------3--------------|
E|-1------------------2------------------1-----------------1----------------|

E|-0----------------|
B|-0----------------|
G|-3----4--2--------|
D|-2----------5-4---|
A|-2----------------|
E|-0----------------|
Suggest correction
Creating personal tab
Creating personal tab
You can edit any tab online and save it as your Personal.

You can edit, replace or remove any tab part or add personal notes – all changes will be seen only by you.

Personal tabs can be accessed anytime from any device, even offline.
Learn more »
comments
print report bad tab
guest
You may want to rate the tab now too:
select rating
Wanna post a correction for this tab? Suggest correction