Oops, an error
Loading. Please wait.

Are You Sincere bass

22 views 6 this week
no commentswrite comment
1 2 3 4 5
3 more votes to show rating
add to favorites
×
Save as Personal and add changes to this tab that will be seen only by you. Learn more ›
×
You can save this tab as Personal to edit and correct it or add notes. All changes will be seen only by you. Learn more »
launch autoscroll
font size
0
reset
guitar tuner
edit
Autoscroll
slow
fast
+/-
esc
set tempo
stop
Tabbed Tabbed by: 6METAL6BASSIST6
E-mail: petergriffinav@gmail.com

Tuning: EADG

G|------------------------------------------------------------------------------------------------|
D|------------------------9-----------------------------------------------------------------------|
A|7-----------10----------------------7-----------------------------------------------------------|
E|------------------------------------------------5-----------------------------------------------|

0:07

G|------------------------------------------------------------------------------------------------|
D|------------------------------------------------5-----------------------5-----------------------|
A|5-----------------------5-----------------------------------------------------------------------|
E|------------------------------------------------------------------------------------------------|

G|------------------------------------------------------------------------------------------------|
D|7-----------------------------------------------------------------------------------------------|
A|------------------------7-----------------------------------------------------------------------|
E|------------------------------------------------5-----------------------5-----------------------|

0:20

G|------------------------------------------------------------------------------------------------|
D|------------------------------------------------5-----------------------5-----------------------|
A|5-----------------------5-----------------------------------------------------------------------|
E|------------------------------------------------------------------------------------------------|

G|------------------------------------------------------------------------------------------------|
D|7-----------------------------------------------7-----------------------------------------------|
A|------------------------7-----------------------------------------------7-----------------------|
E|------------------------------------------------------------------------------------5-----------|

0:33

G|------------------------------------------------------------------------------------------------|
D|------------------------------------------------------------------------------------------------|
A|5-----------------------------------------------5-----------------------5-----------------------|
E|------------------------5-----------------------------------------------------------------------|

G|------------------------------------------------------------------------------------------------|
D|5-----------------------------------------------5-----------------------5-----------------------|
A|------------------------5-----------------------------------------------------------8-----------|
E|------------------------------------------------------------------------------------------------|

0:46

G|------------------------------------------------------------------------------------------------|
D|------------------------------------------------------------------------------------------------|
A|7-----------------------7-----------------------5-----------------------5-----------------------|
E|------------------------------------------------------------------------------------------------|

G|------------------------------------------------|
D|------------------------------------------------|
A|------------------------------------------------|
E|5-----------------------5-----------------------|

G|------------------------------------------------------------------------------------------------|
D|------------------------5-----------------------------------------------------------------------|
A|5-----------------------------------------------5-----------------------------------------------|
E|------------------------------------------------------------------------------------------------|

1:02

G|------------------------------------------------------------------------------------------------|
D|------------------------------------------------5-----------------------5-----------------------|
A|5-----------------------5-----------------------------------------------------------------------|
E|------------------------------------------------------------------------------------------------|

G|------------------------------------------------------------------------------------------------|
D|7-----------------------------------------------------------------------------------------------|
A|------------------------7-----------------------------------------------------------------------|
E|------------------------------------------------5-----------------------0-----------5-----------|

1:15

G|------------------------------------------------------------------------------------------------|
D|------------------------------------------------5-----------------------5-----------------------|
A|5-----------------------5-----------------------------------------------------------------------|
E|------------------------------------------------------------------------------------------------|

G|------------------------------------------------------------------------------------------------|
D|7-----------------------------------------------------------------------------------7-----------|
A|------------------------7-----------------------------------------------7-----------------------|
E|------------------------------------------------5-----------------------------------------------|

1:27

G|------------------------------------------------------------------------------------------------|
D|------------------------------------------------------------------------------------------------|
A|5-----------------------------------------------5-----------------------------------5-----------|
E|------------------------5-----------------------------------------------5-----------------------|

G|------------------------------------------------------------------------------------------------|
D|5-----------------------------------------------5-----------------------5-----------------------|
A|------------------------5-----------------------------------------------------------8-----------|
E|------------------------------------------------------------------------------------------------|

1:41

G|------------------------------------------------------------------------------------------------|
D|------------------------------------------------------------------------------------------------|
A|7-----------------------7-----------------------5-----------------------5-----------------------|
E|------------------------------------------------------------------------------------------------|

G|------------------------------------------------|
D|------------------------------------------------|
A|------------------------------------------------|
E|5-----------------------5-----------------------|

G|------------------------------------------------------------------------------------------------|
D|------------------------5-----------------------------------------------------------------------|
A|5-----------------------------------------------5-----------------------------------4-----------|
E|------------------------------------------------------------5-----------7-----------------------|

1:56

G|------------------------------------------------------------------------------------------------|
D|------------4-------9---7-----------4-------7---------------4-------9---7-----------4-------7---|
A|5-----------------------------------------------5-----------------------------------------------|
E|------------------------------------------------------------------------------------------------|

G|--------------------9---7-------------------7-----------------------9---7-----------------------|
D|5-----------9-----------------------9-----------5-----------8-----------------------8-------5---|
A|------------------------------------------------------------------------------------------------|
E|------------------------------------------------------------------------------------------------|

2:09

G|------------------------------------------------------------------------------------------------|
D|------------5-------11--9-----------5-----------------------4-------9---7-----------4-----------|
A|7-------------------------------------------7---5-------------------------------------------5---|
E|------------------------------------------------------------------------------------------------|

G|------------------------------------------------------------------------------------|
D|------------------------------------------------------------------------------------|
A|------------------------------------------------------------------------------------|
E|5-----------------------------------------------------------------------------------|

G|------------------------------------------------------------------------------|
D|------------------------5-----------5-----------------------------------------|
A|5-----------5-----------------------------------5-------------------------5---|
E|------------------------------------------------------------5-----------------|
Suggest correction
Creating personal tab
Creating personal tab
You can edit any tab online and save it as your Personal.

You can edit, replace or remove any tab part or add personal notes – all changes will be seen only by you.

Personal tabs can be accessed anytime from any device, even offline.
Learn more »
Give kudos to tab author, rate the tab!
1 2 3 4 5
comments
print report bad tab
guest
You may want to rate the tab now too:
select rating
Wanna post a correction for this tab? Suggest correction