Oops, an error
Loading. Please wait.

Big Iron Bass Tab

16 views 1 this week
no commentswrite comment
1 2 3 4 5
3 more votes to show rating
add to favorites
launch autoscroll
font size
0
reset
guitar tuner
Autoscroll
slow
fast
+/-
esc
set tempo
stop
Help us to improve Ultimate-Guitar.com Take our survey!
×
Author
Difficulty
[Intro]
G|---------------------------------|
D|---------------------------------|
A|-----------7-7-----7-7-6-6-6-6-4-|
E|-------4-4-----4-4---------------|

[Verse 1]: "To the town of Agua Fria rode a stranger one fine day..."
G|----------------------------------------------------------------------6--6-6-6-|
D|----------------6-----6-----6-----6---------------------------------9----------|
A|-7-----7-----4-----4-----4-----4-----6-7-----7-----7-----7-----7--7------------|
E|----7-----7-------------------------------7-----7-----7-----7------------------|

G|-------------------------------------------------------------------------------|
D|-7-----7--7-----------------------------6-------6-7--7-------------------------|
A|----7--------7-----7-----7-----7-----4-----4--4---------7-----7-----7-----7----|
E|----------------7-----7-----7-----7------------------------7-----7-----7-----7-|

[Verse 2]: "It was early in the morning when he rode into the town..."
G|----------------------------------------------------------------------------|
D|------------------6-----6-----6-----6-------------------------6-----6-----6-|
A|-6-7-----7-----4-----4-----4-----4-----6-7-----7-----7-----4-----4-----4----|
E|------7-----7-------------------------------7-----7-----7-------------------|

G|-------------------------------------------------------------------------------|
D|-7-----7--7-----------------------------6-------6-7--7-------------------------|
A|----7--------7-----7-----7-----7-----4-----4--4---------7-----7-----7-----7----|
E|----------------7-----7-----7-----7------------------------7-----7-----7-----7-|

[Verse 3]: "In this town there lived an outlaw by the name of Texas Red..."
G|----------------------------------------------------------------------------|
D|------------------6-----6-----6-----6-------------------------6-----6-----6-|
A|-6-7-----7-----4-----4-----4-----4-----6-7-----7--7--7--7--4-----4-----4----|
E|------7-----7-------------------------------7-------------------------------|

G|------------------------------------------------------------------------------|
D|-7-----7--7-----------------------------6-----6--7--7-------------------------|
A|----7--------7-----7-----7-----7-----4-----4-----------7-----7-----7-----7----|
E|----------------7-----7-----7-----7-----------------------7-----7-----7-----7-|

[Verse 4]: "Now the stranger started talking made it plain to folks around..."
G|----------------------------------------------------------------------------|
D|------------------6-----6-----6-----6-------------------------6-----6-----6-|
A|-6-7-----7-----4-----4-----4-----4-----6-7-----7-----7-----4-----4-----4----|
E|------7-----7-------------------------------7-----7-----7-------------------|

G|------------------------------------------------------------------------------|
D|-7-----7--7-----------------------------6-----6--7--7-------------------------|
A|----7--------7-----7-----7-----7-----4-----4-----------7-----7-----7-----7----|
E|----------------7-----7-----7-----7-----------------------7-----7-----7-----7-|

[Verse 5]: "Wasn't long before the story was relayed to Texas Red..."
G|----------------------------------------------------------------------------------|
D|------------------6-----6-----6-----6-------------------------6-----6-----6-----6-|
A|-6-7-----7-----4-----4-----4-----4-----6-7-----7-----7-----4-----4-----4-----4----|
E|------7-----7-------------------------------7-----7-----7-------------------------|

G|--------------------------------------------------------------------------------|
D|-6-7-----7--7-----------------------------6-----6--7--7-------------------------|
A|------7--------7-----7-----7-----7-----4-----4-----------7-----7-----7-----7----|
E|------------------7-----7-----7-----7-----------------------7-----7-----7-----7-|

[Verse 6]: "The morning passed so quickly it was time for them to meet..."
G|----------------------------------------------------------------------------|
D|------------------6-----6-----6-----6-------------------------6-----6-----6-|
A|-6-7-----7-----4-----4-----4-----4-----6-7-----7-----7-----4-----4-----4----|
E|------7-----7-------------------------------7-----7-----7-------------------|

G|------------------------------------------------------------------------------|
D|-7-----7--7-----------------------------6-----6--7--7-------------------------|
A|----7--------7-----7-----7-----7-----4-----4-----------7-----7-----7-----7----|
E|----------------7-----7-----7-----7-----------------------7-----7-----7-----7-|

[Verse 7]: "There was forty feet between them when they stopped to make their play..."
G|----------------------------------------------------------------------------|
D|------------------6-----6-----6-----6-------------------------6-----6-----6-|
A|-6-7-----7-----4-----4-----4-----4-----6-7-----7-----7-----4-----4-----4----|
E|------7-----7-------------------------------7-----7-----7-------------------|

G|-------------------------------------------------------------------------------|
D|-7-----7--7-----------------------------6-----3-6-7--7-------------------------|
A|----7--------7-----7-----7-----7-----4-----4------------7-----7-----7-----7----|
E|----------------7-----7-----7-----7------------------------7-----7-----7-----7-|

[Verse 8]: "It was over in a moment and the folks had gathered round..."
G|----------------------------------------------------------------------------|
D|------------------6-----6-----6-----6-------------------------6-----6-----6-|
A|-6-7-----7-----4-----4-----4-----4-----6-7-----7-----7-----4-----4-----4----|
E|------7-----7-------------------------------7-----7-----7-------------------|

G|-------------------------------------------------------------------------------|
D|-7-----7--7-----------------------------6-----4-6-7--7-------------------------|
A|----7--------7-----7-----7-----7-----4-----4------------7-----7-----7-----7----|
E|----------------7-----7-----7-----7------------------------7-----7-----7-----7-|

"Big Iron, Big Iron...."
G|--------------------------------------------------------------------------------------|
D|-4-6-7--7-----7--------------------------------6-----4-6-7--7-------------------------|
A|-----------7-----7--7-----7-----7-----7-----4-----4------------7-----7-----7-----7----|
E|-----------------------7-----7-----7-----7------------------------7-----7-----7-----7-|

G|---------------------------------------------------|
D|-----4-6-4-----------4-6-4-----------4-6-4---------|
A|-4-7-------7-4---4-7-------7-4---4-7-------7-4---4-|
E|---------------7---------------7---------------7---|
Suggest correction
Give kudos to tab author, rate the tab!
1 2 3 4 5
comments
print report bad tab
guest
You may want to rate the tab now too:
select rating
Wanna post a correction for this tab? Suggest correction