Oops, an error
Loading. Please wait.

Dont Worry Bass Tab

19 views 1 this week
no commentswrite comment
1 2 3 4 5
3 more votes to show rating
add to favorites
launch autoscroll
font size
0
reset
guitar tuner
Autoscroll
slow
fast
+/-
esc
set tempo
stop
Help us to improve Ultimate-Guitar.com Take our survey!
×
Author
Difficulty
[Intro]
G|--------------------------------|
D|--------9-------9-------9-------|
A|----7-------7-------7------9--7-|
E|--------------------------------|

[Verse 1]: "Don't worry 'bout me, it's all over now..."
G|---------------------------------------------------------------|
D|--------9-----------7-------7---7-------9----------9-----------|
A|----7-------7---7-------7-----------7-------7---7------9--6----|
E|-------------------------------------------------------------7-|

"Love can't, be explained..."
G|-----------------------------------------------------------------------|
D|--------9-----------7-------7---7-------9-------9-------9---------4--6-|
A|----7-------7---7-------7-----------7-------7-------7-------7--7-------|
E|-----------------------------------------------------------------------|

[Bridge 1]: "Don't pity me, 'cause I'm feeling blue..."
G|----------------------------------------------------------------|
D|-7-------7---7-------9-----------9-------9---9-------9----------|
A|-----7-----------7-------7---7-------9-----------7-------7---9--|
E|----------------------------------------------------------------|

G|-------------------------------------------------------------|
D|-7-------7---7-------9-----------9-------9---9-------9-------|
A|-----7-----------7-------7---7-------7-----------7------9--7-|
E|-------------------------------------------------------------|

[Fuzzy Bass solo]:
G|-6\8------9--7----7------9--7----7-------14--11-11------14--11-11----9--7-7---------------------9--7-------|
D|----------------9---9----------9---9---------------------------------------------6-8-9----------------9----|
A|-------7--------------7--------------12-------------12------------7---------7--9--------10/7-7-----------7-|
E|-----------------------------------------------------------------------------------------------------------|

[Verse 3] "Sweet, sweet, sweet, love will I want you to be..."
G|--------------------------------------------------------------|
D|--------9-----------7-------7---7-------9-----------9-------9-|
A|----7-------7---7-------7-----------7-------7---7-------7-----|
E|--------------------------------------------------------------|

"I'll never forget you your sweet memory..."
G|-----------------------------------------------------------------------|
D|--------9-----------7-------7---7-------9-------9-------9--------------|
A|----7-------7---7-------7-----------7-------7-------7-------7--5-------|
E|------------------------------------------------------------------7--0-|

[Bridge 2]: "When one heart tells one heart..."
G|----------------------------------------------------------------|
D|-7-------7---7-------9-----------9-------9---9-------9----------|
A|-----7-----------7-------7---7-------9-----------7-------7---9--|
E|----------------------------------------------------------------|

G|---------------------------------------------------------9--7---------14--11-----9--7-------|
D|-7-------7---7-------9-----------9-------9---------------------9-----------------------9----|
A|-----7-----------7-------7---7-------7----------------7-----------12----------7-----------7-|
E|--------------------------------------------------------------------------------------------|

************************************

| \  Slide down
| /  Slide up

************************************
Suggest correction
Give kudos to tab author, rate the tab!
1 2 3 4 5
comments
print report bad tab
guest
You may want to rate the tab now too:
select rating
Wanna post a correction for this tab? Suggest correction