Oops, an error
Loading. Please wait.

El Paso bass

version 1
version 1

Whole song

Interactive

31 views 3 this week
no commentswrite comment
1 2 3 4 5
3 more votes to show rating
add to favorites
×
Save as Personal and add changes to this tab that will be seen only by you. Learn more ›
×
You can save this tab as Personal to edit and correct it or add notes. All changes will be seen only by you. Learn more »
launch autoscroll
font size
0
reset
guitar tuner
edit
Autoscroll
slow
fast
+/-
esc
set tempo
stop
Tabbed Tabbed by: 6METAL6BASSIST6
E-mail: petergriffinav@gmail.com

Tuning: EADG

G|------------------------------------------------------------------------------------|
D|------------------------------------------------7-----------------------------------|
A|5-----------5-----------7-----------7-----------------------7-----------------------|
E|------------------------------------------------------------------------5-----------|

G|------------------------------------------------|
D|----------------------------------------7---4---|
A|5-----------------------5-----------5-----------|
E|------------5-----------------------------------|

0:10

G|------------------------------------------------------------------------------------|
D|------------------------------------------------7-----------------------------------|
A|5-----------5-----------7-----------7-----------------------7-----------------------|
E|------------------------------------------------------------------------5-----------|

G|------------------------------------------------|
D|------------------------------------------------|
A|5-----------------------5---------------2---4---|
E|------------5-----------------------5-----------|

G|------------------------------------------------------------------------------------|
D|------------------------------------------------7-----------------------7-----------|
A|5-----------5-----------7-----------7-----------------------7-----------------------|
E|------------------------------------------------------------------------------------|

G|------------------------------------------------|
D|----------------------------------------7---4---|
A|5-----------------------5-----------5-----------|
E|------------5-----------------------------------|

0:29

G|------------------------------------------------------------------------------------|
D|------------------------------------------------7-----------------------7-----------|
A|5-----------5-----------7-----------7-----------------------7-----------------------|
E|------------------------------------------------------------------------------------|

G|------------------------------------------------|
D|----------------------------------------7---4---|
A|5-----------------------5-----------5-----------|
E|------------5-----------------------------------|

G|------------------------------------------------------------------------------------|
D|------------------------------------------------7-----------------------------------|
A|5-----------5-----------7-----------7-----------------------7-----------------------|
E|------------------------------------------------------------------------5-----------|

G|------------------------------------------------|
D|----------------------------------------2---4---|
A|5-----------------------5-----------5-----------|
E|------------5-----------------------------------|

0:47

G|------------------------------------------------------------------------|
D|5-----------------------5-----------------------5-----------5-----------|
A|------------5-----------------------5-----------------------------------|
E|------------------------------------------------------------------------|

G|------------------------------------------------------------------------------------------------|
D|------------7-----------------------7-----------------------7---------------------------7---4---|
A|5-----------------------5-----------------------5-----------------------5-----------5-----------|
E|------------------------------------------------------------------------------------------------|

G|------------------------------------------------------------------------------------|
D|------------------------------------------------------------------------------------|
A|5-----------------------5-----------------------5-----------------------5-----------|
E|------------5-----------------------5-----------------------5-----------------------|

G|------------------------------------------------|
D|5-----------5-----------7-----------7---5-------|
A|--------------------------------------------7---|
E|------------------------------------------------|

1:09

G|------------------------------------------------------------------------------------|
D|------------------------------------------------7-----------------------7-----------|
A|5-----------5-----------7-----------7-----------------------7-----------------------|
E|------------------------------------------------------------------------------------|

G|------------------------------------------------|
D|----------------7---4---------------------------|
A|5-----------5-----------5---------------2---4---|
E|------------------------------------5-----------|

G|------------------------------------------------------------------------------------|
D|------------------------------------------------7-----------------------7-----------|
A|5-----------5-----------7-----------7-----------------------7-----------------------|
E|------------------------------------------------------------------------------------|

G|------------------------------------------------|
D|----------------------------------------2---4---|
A|5-----------------------5-----------5-----------|
E|------------5-----------------------------------|

1:28

G|------------------------------------------------------------------------|
D|5-----------------------5-----------------------5-----------5-----------|
A|------------5-----------------------5-----------------------------------|
E|------------------------------------------------------------------------|

G|------------------------------------------------------------------------------------------------|
D|----------------------------------------------------------------------------------------7---4---|
A|5-----------------------5-----------------------5-----------------------5-----------5-----------|
E|------------5-----------------------5-----------------------5-----------------------------------|

G|------------------------------------------------------------------------------------|
D|------------------------------------------------------------------------------------|
A|5-----------------------5-----------------------5-----------------------5-----------|
E|------------5-----------------------5-----------------------5-----------------------|

G|------------------------------------------------|
D|5-----------5-----------7-----------7---5-------|
A|--------------------------------------------7---|
E|------------------------------------------------|

1:49

G|------------------------------------------------------------------------------------|
D|------------------------------------------------7-----------------------7-----------|
A|5-----------5-----------7-----------7-----------------------7-----------------------|
E|------------------------------------------------------------------------------------|

G|------------------------------------------------|
D|----------------------------------------7---4---|
A|5-----------------------5-----------5-----------|
E|------------5-----------------------------------|

G|------------------------------------------------------------------------------------|
D|------------------------------------------------7-----------------------7-----------|
A|5-----------5-----------7-----------7-----------------------7-----------------------|
E|------------------------------------------------------------------------------------|

G|------------------------------------------------|
D|----------------------------------------7---4---|
A|5-----------------------5-----------5-----------|
E|------------5-----------------------------------|

G|------------------------------------------------------------------------------------|
D|------------------------------------------------7-----------------------------------|
A|5-----------5-----------7-----------7-----------------------7-----------------------|
E|------------------------------------------------------------------------5-----------|

G|------------------------------------------------|
D|----------------------------------------2---4---|
A|5-----------------------5-----------5-----------|
E|------------5-----------------------------------|

2:16

G|------------------------------------------------------------------------|
D|5-----------------------5-----------------------5-----------5-----------|
A|------------5-----------------------5-----------------------------------|
E|------------------------------------------------------------------------|

G|------------------------------------------------------------------------------------------------|
D|----------------------------------------------------------------------------------------7---4---|
A|5-----------------------5-----------------------5-----------------------5-----------5-----------|
E|------------5-----------------------5-----------------------5-----------------------------------|

G|------------------------------------------------------------------------------------|
D|------------------------------------------------------------------------------------|
A|5-----------------------5-----------------------5-----------------------5-----------|
E|------------5-----------------------5-----------------------5-----------------------|

G|------------------------------------------------|
D|5-----------5-----------7-----------7---5-------|
A|--------------------------------------------7---|
E|------------------------------------------------|

2:38

G|------------------------------------------------------------------------------------|
D|------------7-----------------------------------7-----------------------7-----------|
A|5-----------------------7-----------7-----------------------7-----------------------|
E|------------------------------------------------------------------------------------|

G|------------------------------------------------|
D|------------7---------------------------7---4---|
A|5-----------------------5-----------5-----------|
E|------------------------------------------------|

G|------------------------------------------------------------------------------------|
D|------------------------------------------------7-----------------------7-----------|
A|5-----------5-----------7-----------7-----------------------7-----------------------|
E|------------------------------------------------------------------------------------|

G|------------------------------------------------|
D|----------------------------------------7---4---|
A|5-----------------------5-----------5-----------|
E|------------5-----------------------------------|

2:56

G|------------------------------------------------------------------------------------|
D|------------------------------------------------7-----------------------7-----------|
A|5-----------5-----------7-----------7-----------------------7-----------------------|
E|------------------------------------------------------------------------------------|

G|------------------------------------------------|
D|----------------7---4---------------------------|
A|5-----------5-----------5---------------2---4---|
E|------------------------------------5-----------|

G|------------------------------------------------------------------------------------|
D|------------------------------------------------7-----------------------7-----------|
A|5-----------5-----------7-----------7-----------------------7-----------------------|
E|------------------------------------------------------------------------------------|

G|------------------------------------------------|
D|----------------------------------------2---4---|
A|5-----------------------5-----------5-----------|
E|------------5-----------------------------------|

3:15

G|------------------------------------------------------------------------|
D|5-----------------------5-----------------------5-----------5-----------|
A|------------5-----------------------5-----------------------------------|
E|------------------------------------------------------------------------|

G|------------------------------------------------------------------------------------------------|
D|------------7-----------------------7-----------------------7---------------------------7---4---|
A|5-----------------------5-----------------------5-----------------------5-----------5-----------|
E|------------------------------------------------------------------------------------------------|

G|------------------------------------------------------------------------------------|
D|------------7-----------------------7-----------------------7-----------------------|
A|5-----------------------5-----------------------5-----------------------5-----------|
E|------------------------------------------------------------------------------------|

G|------------------------------------------------|
D|5-----------5-----------7-----------7---5-------|
A|--------------------------------------------7---|
E|------------------------------------------------|

3:36

G|------------------------------------------------------------------------------------|
D|------------7-----------------------------------7-----------------------7-----------|
A|5-----------------------7-----------7-----------------------7-----------------------|
E|------------------------------------------------------------------------------------|

G|------------------------------------------------|
D|------------7---------------------------7---4---|
A|5-----------------------5-----------5-----------|
E|------------------------------------------------|

G|------------------------------------------------------------------------------------|
D|------------------------------------------------7-----------------------------------|
A|5-----------5-----------7-----------7-----------------------7-----------------------|
E|------------------------------------------------------------------------5-----------|

G|------------------------------------------------|
D|------------7---------------------------7---4---|
A|5-----------------------5-----------5-----------|
E|------------------------------------------------|

3:54

G|------------------------------------------------------------------------------------|
D|------------------------------------------------7-----------------------7-----------|
A|5-----------5-----------7-----------7-----------------------7-----------------------|
E|------------------------------------------------------------------------------------|

G|------------------------------------------------|
D|------------7---------------------------7---4---|
A|5-----------------------5-----------5-----------|
E|------------------------------------------------|

G|--------------------------------------------------------------------------------|
D|------------------------------------------------7-------------------------------|
A|5-----------5-----------7-----------7-----------------------7-------------------|
E|--------------------------------------------------------------------------------|

G|--------------------------------------------------------------------------------------------|
D|--------------------------------------------------------------------------------------------|
A|----------------------------------------------------------------------------------------5---|
E|5-------------------------------------------------------------------------------------------|
Suggest correction
Creating personal tab
Creating personal tab
You can edit any tab online and save it as your Personal.

You can edit, replace or remove any tab part or add personal notes – all changes will be seen only by you.

Personal tabs can be accessed anytime from any device, even offline.
Learn more »
Give kudos to tab author, rate the tab!
1 2 3 4 5
comments
print report bad tab
guest
You may want to rate the tab now too:
select rating
Wanna post a correction for this tab? Suggest correction