Oops, an error
Loading. Please wait.

Fastest Gun Around Tab

16 views 1 this week
1 commentread comment
1 2 3 4 5
2 more votes to show rating
add to favorites
launch autoscroll
font size
0
reset
how to read this tab
guitar tuner
Autoscroll
slow
fast
+/-
esc
set tempo
stop
Help us to improve Ultimate-Guitar.com Take our survey!
×
Author
Difficulty
advanced
[Intro]
E|-----------|--------|---------|--------|------------|---------|
B|-----------|--------|---------|--------|------------|---------|
G|-----------|--------|---------|--------|------------|---------|
D|-----------|-8--8---|-8--10-8-|--------|------------|---8-----|
A|---8-10-11-|--10-10-|--10-----|-10---8-|-10-11-8-11-|-11-11-8-|
E|-11--------|--------|---------|---9-9--|------------|---------|


E|----------|-----------|----------|--------|-----------|
B|----------|-----------|----------|--9-9-8-|-----------|
G|----------|---8----10-|-8--------|-8------|-10-10-8---|
D|--------8-|-----10----|---8--8-8-|--------|-----------|
A|------10--|-10--------|----------|--------|-----------|
E|-11-9-----|-----------|----------|--------|-----------|


This is extremely FAST, and, I even suspect that the recording may have been sped up.  It is not
easy to match the speed of the original recording.  To get the tab, I looped it, slowed it down
then sped it back up to finally be able to match the speed.
Suggest correction
Give kudos to tab author, rate the tab!
1 2 3 4 5
comments
print report bad tab
1 comment total.
0 reply
beatboy65 3,421 Nov 11, 2016 10:15 AM

a lot or work! Well done.

guest
You may want to rate the tab now too:
select rating
Wanna post a correction for this tab? Suggest correction