Oops, an error
Loading. Please wait.

Saddle Tramp Tab

10 views 1 this week
no commentswrite comment
1 2 3 4 5
1 last vote to show rating
add to favorites
launch autoscroll
font size
0
reset
how to read this tab
guitar tuner
Autoscroll
slow
fast
+/-
esc
set tempo
stop
Help us to improve Ultimate-Guitar.com Take our survey!
×
Author
Difficulty
intermediate
About this tab version
Original Version, no other submissions currently available. Was this info helpful? Yes No
E|------8-10-|-8--------|---------|---------|
B|-8-10------|--10-8----|---------|---------|
G|-----------|-------10-|-----7-7-|---------|
D|-----------|----------|-7-10----|-7-10-0--|
A|-----------|----------|---------|-------8-|
E|-----------|----------|---------|---------|

E|---------|--------|------|
B|---------|--------|------|
G|---------|--------|------|
D|-5-7-5---|-0------|-0-0--|
A|-------8-|--3-0-3-|--0-3-|
E|---------|--------|------|

Note sequence is:
GACDCAGFACDDACDFGAGF-DCACDDAC

There is a tricky part you will see where you should play the 
open D string, (indicated as a dash in the note sequence above) 
which gives you time to move up to the C position on the A string.
Suggest correction
Give kudos to tab author, rate the tab!
1 2 3 4 5
comments
print report bad tab
guest
You may want to rate the tab now too:
select rating
Wanna post a correction for this tab? Suggest correction