Oops, an error
Loading. Please wait.

Amaneciendo Chords

16 views 1 this week
no commentswrite comment
1 2 3 4 5
3 more votes to show rating
add to favorites
launch autoscroll
font size
0
reset
transpose
0
reset
display chords
guitar tuner
Autoscroll
slow
fast
+/-
esc
set tempo
stop
Help us to improve Ultimate-Guitar.com Take our survey!
×
INTRO
e|---5-6-8-6-5-5--|-----5----|------5------3-5-----|
B|-6-6---------8--|-6-8--8-6-|----6--6------3-3----|
G|---5---------5--|----------|-5-7-5--5/3-3----3/5-|
D|----------------|----------|---------------------|
A|----------------|----------|---------------------|
E|----------------|----------|---------------------|

e|-----5-6-8-6-5-5--|-----5----|------5-----3-5-6-5-3---|
B|---6-6---------8--|-6-8--8-6-|----6--6----3-3-3-3-3---|
G|-5---5---------5--|----------|-5-7-5--5/3-3-3-3-3-3---|
D|------------------|----------|------------------------|
A|------------------|----------|------------------------|
E|------------------|----------|------------------------|

Es toda la canción igual... tiene errores, si alguien los saca,
que lo cuelgue
Arriba Marulata!!!

F            Gm        F             Gm               F
Salgo de la cama de mañana, la luz penetra por la persiana
          Gm                  F              Gm
Y a vos resaca no calla este verso que me levanta y dice...

  F            Gm
  Buen día día, amaneciendo
  Buen día mi vida, amaneciendo
  Quiero que nos vistamos de alegría, amaneciendo...

INTRO

Y a ese buzo que las polillas lo morfaron
y era de mi agrado no me han enojado
Si no hice nada de nada, no, para evitarlo

Si sé que en el almacén me atiende ese guacho malencarado
lo miro igual que él me mira a mí
a ver si de mí se puede reir y le digo:

Buen día día, amaneciendo
Buen día mi vida, amaneciendo
Quiero que nos vistamos de alegría, amaneciendo...

INTRO

No es que no sepa tu situación, no es que no la sepa, no,
No es que no entienda tu situación si también la vivo yo

Sólo rumbeo a mi corazón a vestirse con esta canción
Y si siento la vibración de que hay más, te juro, mucho mejor
diciendo:

Buen día día, amaneciendo
Buen día mi vida, amaneciendo
Quiero que nos vistamos ...(tanto)

Buen día día, amaneciendo
Buen día mi vida, amaneciendo
Quiero que nos vistamos de alegría, amaneciendo...

Buen día día, amaneciendo
Buen día mi vida, amaneciendo
Quiero que nos vistamos de alegría, amanecie-e-en-do...
Suggest correction
Give kudos to tab author, rate the tab!
1 2 3 4 5
comments
print report bad tab
guest
You may want to rate the tab now too:
select rating
Wanna post a correction for this tab? Suggest correction