Oops, an error
Loading. Please wait.

Come To Me bass

13 views 1 this week
no commentswrite comment
1 2 3 4 5
2 more votes to show rating
add to favorites
×
Save as Personal and add changes to this tab that will be seen only by you. Learn more ›
×
You can save this tab as Personal to edit and correct it or add notes. All changes will be seen only by you. Learn more »
launch autoscroll
font size
0
reset
guitar tuner
edit
Autoscroll
slow
fast
+/-
esc
set tempo
stop
Marv Johnson - Come To Me
Tuning - Standard
Time - 4/4
tabbed by electricbunny
 
[Intro]
G|--------------------------------|--------------------------------|
D|--------------------------------|0---------------0-----------0---|
A|3---------------3---------------|--------------------------------|
E|--------------------------------|--------------------------------|
                                                                    
G|--------------------------------|--------------------------------|
D|--------------------------------|0---------------0---------------|
A|3---------------3-----------3---|--------------------3-------3---|
E|--------------------------------|--------------------------------|
                                                                  
G|--------------------------------|--------------------------------|
D|--------------------------------|0---------------0-----------0---|
A|3---------------3-----------3---|--------------------------------|
E|--------------------------------|--------------------------------|
                                                                   
G|--------------------------------|--------------------------------|
D|3-------------------------------|--------------------------------|
A|--------------------------------|--------------------------------|
E|--------------------------------|--------------------------------|
 
[Chorus]
G|--------------------5---7-------|--------------------5---7---5---|
D|----------------7---------------|----------------7---------------|
A|8-----------8-------------------|8-----------8-------------------|
E|--------------------------------|--------------------------------|
                                                                  
G|------------------------2-------|------------------------2-------|
D|0-----------0---3---------------|0-----------0---3---------------|
A|--------------------------------|--------------------------------|
E|--------------------------------|--------------------------------|
                                                                  
G|--------------------------------|------------------------0-------|
D|----------------0-------3-------|----------------0---3-------3---|
A|1-----------1-------------------|1-----------1-------------------|
E|--------------------------------|--------------------------------|
                                                                   
G|------------------------0-------|------------------------0-------|
D|----------------2---------------|----------------2-----------2---|
A|3-----------3-------------------|3-----------3-------------------|
E|--------------------------------|--------------------------------|

[Verse]
G|--------------------5---7-------|--------------------5---7---5---|
D|----------------7---------------|----------------7---------------|
A|8-----------8-------------------|8-----------8-------------------|
E|--------------------------------|--------------------------------|
                                                                  
G|------------------------2-------|------------------------2-------|
D|0-----------0---3---------------|0-----------0---3---------------|
A|--------------------------------|--------------------------------|
E|--------------------------------|--------------------------------|
                                                                 
G|--------------------------------|------------------------0-------|
D|----------------0-------3-------|----------------0---3-------3---|
A|1-----------1-------------------|1-----------1-------------------|
E|--------------------------------|--------------------------------|
                                                                 
G|------------------------0-------|--------------------------------|
D|----------------2---------------|3-------------------------------|
A|3-----------3-------------------|--------------------------------|
E|--------------------------------|--------------------------------|

[Bridge]
G|------------------------2-------|------------------------2-------|
D|0-----------0---3---------------|0-----------0---3---------------|
A|--------------------------------|--------------------------------|
E|--------------------------------|--------------------------------|
                                                                   
G|------------------------5-------|--------------------------------|
D|3-----------3---6---------------|3-------------------------------|
A|--------------------------------|--------------------------------|
E|--------------------------------|--------------------------------|

[Verse]
G|--------------------------------|------------------------0-------|
D|----------------0-------3-------|----------------0---3-------0---|
A|1-----------1-------------------|1-----------1-------------------|
E|--------------------------------|--------------------------------|
                                                                  
G|--------------------------------|2-----------2-----------3-------|
D|3-----------0-------------------|--------------------------------|
A|------------------------3-------|--------------------------------|
E|--------------------------------|--------------------------------|
                                                                  
G|--------------------------------|--------------------------------|
D|------------0-----------3-------|------------0-----------3-------|
A|1-------------------------------|1-------------------------------|
E|--------------------------------|--------------------------------|
                                                                   
G|0-------------------------------|--------------------------------|
D|--------------------------------|--------------------------------|
A|--------------------------------|--------------------------------|
E|--------------------------------|--------------------------------|

[Chorus]
G|--------------------5---7-------|--------------------5---7---5---|
D|----------------7---------------|----------------7---------------|
A|8-----------8-------------------|8-----------8-------------------|
E|--------------------------------|--------------------------------|
                                                                  
G|------------------------2-------|------------------------2-------|
D|0-----------0---3---------------|0-----------0---3---------------|
A|--------------------------------|--------------------------------|
E|--------------------------------|--------------------------------|
                                                                  
G|--------------------------------|------------------------0-------|
D|----------------0-------3-------|----------------0---3-------3---|
A|1-----------1-------------------|1-----------1-------------------|
E|--------------------------------|--------------------------------|
                                                                  
G|------------------------0-------|--------------------------------|
D|----------------2---------------|3-------------------------------|
A|3-----------3-------------------|--------------------------------|
E|--------------------------------|--------------------------------|

[Bridge]
G|------------------------2-------|------------------------2-------|
D|0-----------0---3---------------|0-----------0---3---------------|
A|--------------------------------|--------------------------------|
E|--------------------------------|--------------------------------|
                                                                  
G|------------------------5-------|--------------------------------|
D|3-----------3---6---------------|3-------------------------------|
A|--------------------------------|--------------------------------|
E|--------------------------------|--------------------------------|

[Flute solo]
G|--------------------------------|------------------------0-------|
D|----------------0-------3-------|----------------0---3-------0---|
A|1-----------1-------------------|1-----------1-------------------|
E|--------------------------------|--------------------------------|
                                                                  
G|--------------------------------|------------------------3-------|
D|3-----------0-------------------|0-----------0---3---------------|
A|------------------------3-------|--------------------------------|
E|--------------------------------|--------------------------------|
                                                                   
G|--------------------------------|--------------------------------|
D|------------0-----------3-------|------------0-----------3-------|
A|1-------------------------------|1-------------------------------|
E|--------------------------------|--------------------------------|
                                                                  
G|------------------------5-------|--------------------------------|
D|5---------------3---------------|3-------------------------------|
A|--------------------------------|--------------------------------|
E|--------------------------------|--------------------------------|

[Pre-Chorus]
G|--------------------------------|------------------------0-------|
D|----------------0-------3-------|----------------0---3-------0---|
A|1-----------1-------------------|1-----------1-------------------|
E|--------------------------------|--------------------------------|
                                                                   
G|--------------------------------|3-----------3---0---0-----------|
D|3-----------0-------------------|------------------------3-------|
A|------------------------3-------|--------------------------------|
E|--------------------------------|--------------------------------|
                                                                  
G|--------------------------------|--------------------------------|
D|------------0-----------3-------|------------0-----------3-------|
A|1-------------------------------|1-------------------------------|
E|--------------------------------|--------------------------------|
                                                                  
G|0-------------------------------|--------------------------------|
D|--------------------------------|--------------------------------|
A|--------------------------------|--------------------------------|
E|--------------------------------|--------------------------------|

[Chorus]
G|--------------------5---7-------|--------------------5---7---5---|
D|----------------7---------------|----------------7---------------|
A|8-----------8-------------------|8-----------8-------------------|
E|--------------------------------|--------------------------------|
                                                                  
G|------------------------2-------|------------------------2-------|
D|0-----------0---3---------------|0-----------0---3---------------|
A|--------------------------------|--------------------------------|
E|--------------------------------|--------------------------------|
                                                                   
G|--------------------------------|------------------------0-------|
D|----------------0-------3-------|----------------0---3-------3---|
A|1-----------1-------------------|1-----------1-------------------|
E|--------------------------------|--------------------------------|
                                                                  
G|------------------------0-------|--------------------------------|
D|----------------2---------------|3-------------------------------|
A|3-----------3-------------------|--------------------------------|
E|--------------------------------|--------------------------------|

[Outro]
G|------------------------2-------|------------------------2-------|
D|0-----------0---3---------------|0-----------0---3---------------|
A|--------------------------------|--------------------------------|
E|--------------------------------|--------------------------------|
                                                                   
G|------------------------5-------|--------------------------------|
D|3-----------3---6---------------|3-------------------------------|
A|--------------------------------|--------------------------------|
E|--------------------------------|--------------------------------|
                                                                   
G|--------------------------------|------------------------0-------|
D|----------------0-------3-------|----------------0---3-------0---|
A|1-----------1-------------------|1-----------1-------------------|
E|--------------------------------|--------------------------------|
                                                                   
G|--------------------------------|--------------------------------|
D|3-----------0-------------------|0-----------------------3---3---|
A|------------------------3-------|--------------------------------|
E|--------------------------------|--------------------------------|
                                                                
G|--------------------------------|------------------------2-------|
D|0-----------0-----------3-------|0-----------0---3---------------|
A|--------------------------------|--------------------------------|
E|--------------------------------|--------------------------------|
                                                                    
G|------------------------5-------|--------------------------------|
D|3---------------3---------------|3-------------------------------|
A|--------------------------------|--------------------------------|
E|--------------------------------|--------------------------------|
Suggest correction
Creating personal tab
Creating personal tab
You can edit any tab online and save it as your Personal.

You can edit, replace or remove any tab part or add personal notes – all changes will be seen only by you.

Personal tabs can be accessed anytime from any device, even offline.
Learn more »
Give kudos to tab author, rate the tab!
1 2 3 4 5
comments
print report bad tab
guest
You may want to rate the tab now too:
select rating
Wanna post a correction for this tab? Suggest correction