Oops, an error
Loading. Please wait.

Freak Of The Week Bass

version 1
version 1

Whole song

Interactive

1,405 views 3 this week
no commentswrite comment
1 2 3 4 5
3 more votes to show rating
add to favorites
launch autoscroll
font size
0
reset
guitar tuner
×
Best way to learn
"Freak Of The Week"
Autoscroll
slow
fast
+/-
esc
set tempo
stop
Marvelous 3
Freak of the week

tabbed by: Booga1

Notation:
() ---- tied note

	I'm not positive that this is right, some of the fills might not be exact, but for the most part 
the notes are all there.  I tried to get the rhythms the best I could.  If there are any mistakes that 
you find, please email me...ENJOY!  B


    W     H. E  E   E E E Q  E E E   E E E Q  E E E   E E E Q  E E E   E E E Q  E E E   E E E Q  E E E
G|-----|----------|----------------|----------------|----------------|----------------|----------------|
D|--R--|--R--R----|-----0----------|-----0----------|-----0----------|-----0----------|-----0----------|
A|-----|----------|---2---0--2-0---|---2---0--2-0---|---2---0--2-0---|---2---0--2-0---|---2---0--2-0---|
E|-----|--------2-|-3------------2-|-3------------2-|-3------------2-|-3------------2-|-3------------2-|






   E E E Q  E E E   E E E Q  E E E   E E E Q  E E E   E E E Q  E E E   E E E Q  E E E   E E E Q  E E E
G|----------------|----------------|----------------|----------------|----------------|----------------|
D|-----0----------|-----0----------|-----0----------|-----0----------|-----0----------|-----0----------|
A|---2---0--2-0---|---2---0--2-0---|---2---0--2-0---|---2---0--2-0---|---2---0--2-0---|---2---0--2-0---|
E|-3------------2-|-3------------2-|-3------------2-|-3------------2-|-3------------2-|-3------------2-|





   E E E Q  E Q    E E E E E E E E    E  E E E E E E E   E E E E E E E E    E  E E E E E E E   E E E E E E E E
G|---------------|-----------------|-------------------|-----------------|-------------------|-----------------|
D|-----0---------|-0-0-0-0-0-0-0---|-------------------|-0-0-0-0-0-----5-|-(5)-5-4-4-2-2-0---|-0-0-0-0-0-------|
A|---2---0--0-0--|---------------3-|-(3)-3-3-3-3-3-3-3-|-----------2-0---|-----------------2-|-----------2-0---|
E|-3-------------|-----------------|-------------------|-----------------|-------------------|---------------3-|





    E  E E E E E Q    H  Q. E    E  E E E E Q  E   E E E E Q  Q    E E E Q  E E E   E E E Q  E E E   
G|------------------|---------|------------------|---------------|----------------|----------------|
D|------------------|---------|------------------|------------R--|-----0----------|-----0----------|
A|------------------|-2--0----|------------------|---------------|---2---0--2-0---|---2---0--2-0---|
E|-(3)-3-3-3-3-5-3--|-------3-|-(3)-3-3-3-3-5--2-|-3-2-3-2-3-----|-3------------2-|-3------------2-|






   E E E Q  E E E   E E E Q  E E E   E E E Q  E E E   E E E Q  E E E   E E E Q  E E E   E E E Q  E E E
G|----------------|----------------|----------------|----------------|----------------|----------------|
D|-----0----------|-----0----------|-----0----------|-----0----------|-----0----------|-----0----------|
A|---2---0--2-0---|---2---0--2-0---|---2---0--2-0---|---2---0--2-0---|---2---0--2-0---|---2---0--2-0---|
E|-3------------2-|-3------------2-|-3------------2-|-3------------2-|-3------------2-|-3------------2-|






   E E E Q  E E E   E E E Q  E E E   E E E Q  E E E   E E E Q  E Q    E E E E E E E E    E  E E E E E E E
G|----------------|----------------|----------------|---------------|-----------------|-------------------|
D|-----0----------|-----0----------|-----0----------|-----0---------|-0-0-0-0-0-0-0---|-------------------|
A|---2---0--2-0---|---2---0--2-0---|---2---0--2-0---|---2---0--0-0--|---------------3-|-(3)-3-3-3-3-3-3-3-|
E|-3------------2-|-3------------2-|-3------------2-|-3-------------|-----------------|-------------------|






   E E E E E E E E    E  E E E E E E E   E E E E E E E E    E  E E E E E E E   H  Q. E    E  E E E E Q  E
G|-----------------|-------------------|-----------------|-------------------|---------|------------------|
D|-0-0-0-0-0-----5-|-(5)-5-4-4-2-2-0---|-0-0-0-0-0-------|-------------------|---------|------------------|
A|-----------2-0---|-----------------2-|-----------2-0---|-------------------|-2--0----|------------------|
E|-----------------|-------------------|---------------3-|-(3)-3-3-3-3-3-3-3-|-------3-|-(3)-3-3-3-3-5--2-|





   E E E E E E Q    E E H  E E   E E H  E E   E E H  E E   E E H  E E   E E H  E E   E E H  E E   E E E E E E E E 
G|----------------|------------|------------|------------|------------|------------|------------|-----------------|
D|----------------|-----R--R---|-----R--R---|-----R--R---|-----R--R---|-----R--R---|-----R--R---|-----------------|
A|----------------|-0-0------0-|------------|-0-0------0-|------------|-0-0------0-|------------|-0-0-0-0-0-0-0-0-|
E|-3-2-3-2-3-2-3--|------------|-3-3------3-|------------|-3-3------3-|------------|-3-3------3-|-----------------|





   E E E E E E E E   Q H.    W     W     W     W     W     W     W    E E E E E E E E   E E E E E Q  E
G|-----------------|------|-----|-----|-----|-----|-----|-----|-----|-----------------|----------------|
D|-----------------|---R--|--R--|--R--|--R--|--R--|--R--|--R--|--R--|-----------------|----------------|
A|-0-0-0-0-0-0-0-0-|------|-----|-----|-----|-----|-----|-----|-----|-----------------|-----------0--2-|
E|-----------------|-3----|-----|-----|-----|-----|-----|-----|-----|-3-3-3-3-3-3-3-3-|-3-3-3-3-3------|





   E E E E E E E E   E E E E E Q  E   E E E E E E E E   E E E E E Q  E   E E E E E E E E   E E E E E E E E
G|-----------------|----------------|-----------------|----------------|-----------------|-----------------|
D|-----------------|----------------|-----------------|----------------|-----------------|-----------------|
A|-2-2-2-2-2-2-2-2-|-2-2-2-2-2-0----|-----------------|-----------0--2-|-2-2-2-2-2-2-2-2-|-----------------|
E|-----------------|--------------3-|-3-3-3-3-3-3-3-3-|-3-3-3-3-3------|-----------------|-3-3-3-3-3-3-3-3-|






   E E E E E E E E    E  E E E E E E E   E E E E E E E E    E  E E E E E E E   E E E E E E E E    E  E E E E E E E
G|-----------------|-------------------|-----------------|-------------------|-----------------|-------------------|
D|-0-0-0-0-0-0-0---|-------------------|-0-0-0-0-0-----5-|-(5)-5-4-4-2-2-0---|-0-0-0-0-0-------|-------------------|
A|---------------3-|-(3)-3-3-3-3-3-3-3-|-----------2-0---|-----------------2-|-----------2-0---|-------------------|
E|-----------------|-------------------|-----------------|-------------------|---------------3-|-(3)-3-3-3-3-3-3-3-|





   H  Q. E    E  E E E E E E   E E E E E E E E    E  E E E E E E E   E E E E E E E E    E  E E E E E E 
G|---------|-----------------|-----------------|-------------------|-----------------|-----------------|
D|---------|-----------------|-0-0-0-0-0-0-0---|-------------------|-0-0-0-0-0-----5-|-(5)-4-4-2-2-0---|
A|-2--0----|-----------------|---------------3-|-(3)-3-3-3-3-3-3-3-|-----------2-0---|---------------2-|
E|-------3-|-(3)-3-3-3-3-3-3-|-----------------|-------------------|-----------------|-----------------|





   E E E E E E E E    E  E E E E E E E   H  Q. E      E  E E E E E E E   E E E E E Q  E   E E E E E E E E 
G|-----------------|-------------------|---------||--------------------|----------------|-----------------|
D|-0-0-0-0-0-------|-------------------|---------||.-------------------|----------------|-----------------|
A|-----------2-0---|-------------------|-2--0----||.-------------------|-----------0--2-|-2-2-2-2-2-2-2-2-|
E|---------------3-|-(3)-3-3-3-3-3-3-3-|-------3-||--(3)-3-3-3-3-3-3-3-|-3-3-3-3-3------|-----------------|





   E E E E E E E E   E E E E E E E E   E E E E E Q  E   E E E E E E E E   E E E E E E E E 
G|---0-------------|-----------------|----------------|-----------------|---0-2-0----------||
D|-----4-2-0-------|-----------------|----------------|-----------------|---------4-0-2---.||
A|-2---------2-0---|-----------------|-----------0--2-|-2-2-2-2-2-2-2-2-|-2---------------.||
E|---------------3-|-3-3-3-3-3-3-3-3-|-3-3-3-3-3------|-----------------|---------------3--||

                                                                                   Repeat til end (about 2x)


I have a couple others that I have tabbed...

hinspooncincy@hotmail.com

Suggest correction
Give kudos to tab author, rate the tab!
1 2 3 4 5
comments
print report bad tab
guest
You may want to rate the tab now too:
select rating
Wanna post a correction for this tab? Suggest correction