Oops, an error
Loading. Please wait.

Got To Give It Up bass

version 1
version 1

Whole song

Interactive

85 views 21 this week
no commentswrite comment
1 2 3 4 5
2 more votes to show rating
add to favorites
×
Save as Personal and add changes to this tab that will be seen only by you. Learn more ›
×
You can save this tab as Personal to edit and correct it or add notes. All changes will be seen only by you. Learn more »
launch autoscroll
font size
0
reset
guitar tuner
edit
Autoscroll
slow
fast
+/-
esc
set tempo
stop
Marvin Gaye - Got To Give It Up
Tabbed by Electricbunny

Tempo = 123


[Intro]

G|----------------------------|----------------------------|
D|----------------------------|----------------------------|
A|--0-------------------------|-----------------------0----|
E|-----------------3-----3----|-----------------3----------|


G|----------------------------|----------------------------|
D|----------------------------|---------------0------------|
A|--0--------------------0----|----------------------3-----|
E|--------------------3-------|-------------------------3--|



G|----------------------------|----------------------------|
D|----------------------------|----------------------------|
A|--0-----------------0--0----|-----------0----------------|
E|-----------------3----------|--------------3-----3--3----|


G|----------------------------|----------------------------|
D|--------------0-------------|----------------------------|
A|--0-----------------3--0----|-----------------------0----|
E|----------------------------|-----------------3--4-------|

[Verse 1]
G|----------------------------|----------------------------|
D|----------------------------|----------------------------|
A|-----------------------0----|-----------0----------------|
E|--------------------3-------|--------------3-----3-------|


G|----------------------------|----------------------------|
D|----------------------------|-------------2-----0--------|
A|--0--------------0-----0----|----------------------3-----|
E|--------------------3-------|----------------------------|


G|----------------------------|----------------------------|
D|----------------------------|----------------------------|
A|--0---0-------------0--0----|-----------0-----------0----|
E|-----------------3----------|--------------3--3--3-------|


G|----------------------------|----------------------------|
D|----------------------------|-----2-----------0----------|
A|--------------0--0-----0----|--------------------3-4-----|
E|--------------------3-------|----------------------------|

[Chorus 1]
G|----------------------------|------------------------0-2-|
D|--0--------------0--1--2----|----2---0-------------------|
A|----------------------------|------------3---------------|
E|----------------------------|----------------------------|



G|----------------------------|----------------------------|
D|----------------------------|----------------------------|
A|--0-----------0----------0--|-2----------2-----2--2------|
E|-----------------3----------|----------------------------|
 


G|----------------------------|--0-------------------------|
D|--0--------------0--1--2----|-----2-----------2--0-------|
A|----------------------------|-----------------------3----|
E|----------------------------|----------------------------|


G|----------------------------|-----------------------1----|
D|----------------------------|----------------------------|
A|--0-----------0-----0--1----|--2--------2--3-----2-------|
E|-----------------3----------|----------------------------|

[Verse 2]
G|----------------------------|----------------------------|
D|----------------------------|----------------------------|
A|--0-----------0--0----------|----------------------------|
E|-----------------------3----|-----------3-----3-----3----|


G|----------------------------|----------------------------|
D|----------------------------|--------0-------------------|
A|--0--------------0-----0----|--------------------3-------|
E|--------------------3-------|-----------------------3----|


G|----------------------------|----------------------------|
D|----------------------------|----------------------------|
A|--0-----------0--0-----0----|-----------0----------------|
E|--------------------3-------|--------------3-----3--4----|


G|-----------------0--2--2----|-----------2-----2-----0----|
D|----------------------------|----------------------------|
A|--0-------------------------|----------------------------|
E|----------------------------|----------------------------|

[Chorus 2]
G|----------7-7-7--5----------|--9-----7-----------5-------|
D|--0--------------------0----|-----------------------7----|
A|----------------------------|----------------------------|
E|----------------------------|----------------------------|


G|-----------2--0-------------|----------------------------|
D|--------------------2-------|-----0----------------------|
A|----------------------------|--2-----------2-------------|
E|----------------------------|----------------------------|


G|----------------------------|-----------------0-----2----|
D|--0-----0--------------2----|-----------2----------------|
A|--------------3--3----------|----------------------------|
E|----------------------------|----------------------------|


G|--2--5--2--------2--0--2----|----------------------------|
D|----------------------------|----------------------------|
A|----------------------------|--2-----2-----------3--0----|
E|----------------------------|----------------------------|

[Verse 3]
G|----------------------------|----------------------------|
D|----------------------------|----------------------------|
A|-----------0-----------0----|-----------------0-----0----|
E|--------------3-----3-------|-----------3----------------|


G|----------------------------|----------------------------|
D|----------------------------|--------------0--0----------|
A|--0--0-----0-----------0----|--------------------3--0----|
E|--------------3--3----------|----------------------------|


G|----------------------------|----------------------------|
D|----------------------------|----------------------------|
A|--0--------------0-----0----|-----3--0-------------------|
E|--------------------3-------|--------------------3--4----|


G|----------------------------|----------------------------|
D|----------------------------|----------------------------|
A|--0--------------0-----0----|-----0-----------0----------|
E|--------------------3-------|----------------------------|


G|--17-17----17----16----16---|-----14----14----12---------|
D|----------------------------|----------------------------|
A|----------------------------|----------------------------|
E|----------------------------|----------------------------|


G|--12-12----12----11----11---|-----9-----9-----7-----0----|
D|----------------------------|----------------------------|
A|----------------------------|----------------------------|
E|----------------------------|----------------------------|


G|--------------------7-------|--5-------------------------|
D|---7-------------7-----7----|--------------0-------------|
A|----------------------------|---------3-3-----3--0-------|
E|----------------------------|----------------------3-----|


G|----------------------------------------------------|
D|----------------------------------------------------|
A|--------------------------------------------0-------|
E|--------------------3--3--3-----------3-------------|


G|-----9--------7--5----------|----------------------------|
D|--------------------7-------|-----------------0-----1----|
A|-----------------------3----|--5-------------------------|
E|----------------------------|----------------------------|

[Chorus 3]
G|-----------------------1----|--2--4--2-------------------|
D|--2--------2--------2-------|----------------------------|
A|----------------------------|-----------------0--2--0----|
E|----------------------------|----------------------------|


G|----------------------------|----------------------------|
D|----------------------------|-----------------0--2--0----|
A|--2--------------2-----3----|-----2--0-------------------|
E|----------------------------|----------------------------|


G|----------------------------|----------------------------|
D|--2-2------2--0-------------|----------------------------|
A|--------------------3-------|--0--------------0-----0----|
E|----------------------------|--------------------3-------|


G|----------------------------|----------------------------|
D|----------------------------|----------------------------|
A|--2-----------3--3--2--1----|--0--------------------0----|
E|----------------------------|----------------------------|

[Verse 4]
G|----------------------------|----------------------------|
D|----------------------------|----------------------------|
A|-----------------------0----|--0-----------0--------0----|
E|-----3--3-----------3-------|--------------------3-------|


G|----------------------------|-----------------------0----|
D|--------------0-------------|-----------2----------------|
A|-----------0----------------|----------------------------|
E|----------------------------|----------------------------|


G|-----------2----------------|----------------------------|
D|----------------------------|----------------------------|
A|----------------------------|--0--0-----0-----------0----|
E|----------------------------|--------------3-----3-------|


G|----------------------------|----------------------------|
D|----------------------------|----------------------------|
A|----------------------------|--0--------------0-----0----|
E|-----------------3--3--4----|----------------------------|


G|----------------------------|----2-----------0-----0-----|
D|----------------------------|----------------------------|
A|-----0--------0-----0--0----|----------------------------|
E|--------3--3----------------|----------------------------|


G|--2--------------2--5--2----|----------------------------|
D|----------------------------|--0--------------0----------|
A|----------------------------|--------------------3--3----|
E|----------------------------|----------------------------|


G|----------------------------|----------------------------|
D|--0--------0-----------0----|-----------------0-----2----|
A|--------------3-----3-------|----------------------------|
E|----------------------------|----------------------------|


G|----------------------------|----------------------------|
D|-----2--0--0-----0----------|--0-----------0--0----------|
A|--------------------3--3----|--------------------3--3----|
E|----------------------------|----------------------------|


G|----------------------------|----------------------------|
D|--------0-----0--0----------|--0-----------2-----2-------|
A|-----------------------3----|----------------------------|
E|----------------------------|----------------------------|


G|----------------------------|----------------------------|
D|-----------------2--0-------|----------------------------|
A|-----------------------3----|--0--------------0-----0----|
E|----------------------------|--------------------3-------|


G|-----------------------2----|-----2--2--------------2----|
D|----------------------------|----------------------------|
A|-----------------0----------|----------------------------|
E|----------------------------|----------------------------|


G|-----2-----0-----0----------|----------------------------|
D|-----------------------2----|--0-----0--------0----------|
A|----------------------------|--------------------3--0----|
E|----------------------------|----------------------------|


G|----------------------------|----------------------------|
D|--2-----------2-----2-------|----------------------------|
A|-----------------------0----|--0-----------0-----0-------|
E|----------------------------|-----------------------3----|


G|----------------------------|--------------------2-------|
D|----------------------------|--0--------0----------------|
A|--2-----------------2--0----|----------------------------|
E|----------------------------|----------------------------|


G|-----0----------------------|----------------------------|
D|-----------4-----2-----0----|----------------------------|
A|----------------------------|--0-----------0--0-----2----|
E|----------------------------|--------------------3-------|


G|----------------------------|----------------------------|
D|----------------------------|----------------------------|
A|-----------2--3-----2-------|--0--------0----------------|
E|----------------------------|--------------3--3-----3----|


G|----------------------------|----------------------------|
D|----------------------------|----------------------------|
A|-----------------------0----|-----------------0-----0----|
E|-----------------3--3-------|--------------------3-------|


G|----------------------------|----------------------------|
D|----------------------------|----------------------------|
A|----------------------------|--0--------0-----0-----0----|
E|--------------3--3--3--4----|--------------3-------------|


G|----------------------------|----------------------------|
D|----------------------------|----------------------------|
A|----------------------------|--0--------------0-----0----|
E|--------------3--3--3--4----|--------------------3-------|


G|----------------------------|--------------------0--2----|
D|----------------------------|-----------------2----------|
A|--------------3--------0----|--0-------------------------|
E|----------------------------|----------------------------|


G|----------------------------|----------------------------| 
D|----------------------------|----------------------------| 
A|----------------------------|--0--------0-----------0----|
E|--------------3-----3-------|--------------3-----3-------| 


G|--------------------------0-|--2--2-----------2--0--2----|
D|----------------------------|----------------------------|
A|----------------------------|----------------------------|
E|----------------------------|----------------------------|


G|--------0-2-----------------|---0-2----2----0-------0-2--|
D|----------------------------|----------------------------|
A|----------------------------|----------------------------|
E|----------------------------|----------------------------|


G|-----2--0-------------------|----------------------------|
D|----------------------------|----------------------------|
A|----------------------------|--0--0--------2--------3----|
E|----------------------------|----------------------------|


G|----------------------------|----------------------------|
D|----------------------------|----------------------------|
A|-----0----------------------|--0--------------0-----0----|
E|-----------------------3----|--------------------3-------|

[Sax solo]
G|----------------------------|--------------------0--2----|
D|----------------------------|-----------------2----------|
A|-----------------------0----|----------------------------|
E|--------3-----3-----3-------|----------------------------|


G|----------------------------|----------------------------|
D|----------------------------|----------------------------|
A|-----------------------0----|-----------0-----------0----|
E|--------------3-----3-------|--------------3-----3-------|


G|-----------2----------------|----------------------------|
D|--------------------0-------|----------------------------|
A|-----------------------3----|--0--------0-----------0----|
E|----------------------------|--------------3-----3-------|


G|----------------------------|----------------------------|
D|----------------------------|----------------------------|
A|----------------------------|-----------------------0----|
E|--------------3--3----------|-----3--------------3-------|


G|----------------------------|--------------------0--2----|
D|----------------------------|-----------------2----------|
A|-----------------------0----|----------------------------|
E|--------3-----3-----3-------|----------------------------|


G|---------------------|----------------------------|------|
D|---------------------|----------------------------|------|
A|---------------------|--0--------0-----------0----|------|
E|-------3-----3-------|--------------3-----3-------|------|


G|--2--2-----------2--0--2----|-----------------2--0--2----|
D|----------------------------|----------------------------|
A|----------------------------|----------------------------|
E|----------------------------|----------------------------|


G|--------0-2-----------------|-----0-2------2----0---0-2--|
D|----------------------------|----------------------------|
A|----------------------------|----------------------------|
E|----------------------------|----------------------------|


G|-----2--0-------------------|--2-------------------------|
D|----------------------------|----------------------------|
A|----------------------------|-----0--------2--------3----|
E|----------------------------|----------------------------|


G|----------------------------|----------------------------|
D|----------------------------|----------------------------|
A|-----2----------------------|--0--------------0-----0----|
E|-----------------------3----|--------------------3-------|


G|----------------------------|----------------------------|
D|----------------------------|----------------------------|
A|----------------------------|--0-----------------0-------|
E|--------------3--3--3--4----|-----------------------3----|


G|----------------------------|----------------------------|
D|-----------------2-----2----|----------------------------|
A|--0-------------------------|-----------------------0----|
E|----------------------------|--------------------3-------|

[Guitar solo Outro]
G|----------------------------|----------------------------|
D|-----0--------------0-------|----------------------------|
A|----------------------------|--3--------2--0--------0----|
E|----------------------------|--------------------3-------|


G|----------------------------|----------------------------|
D|----------------------------|----------------------------|
A|----------------------------|--0-------------------------|
E|--------------3--3----------|-----3--3-----------3-------|


G|----------------------------|--------------------0--2----|
D|----------------------------|-----------------2----------|
A|----------------------------|--0-------------------------|
E|--------3-----3-----3-------|----------------------------|


G|----------------------------|----------------------------|
D|----------------------------|----------------------------|
A|-----------------------0----|-----------0-----------0----|
E|--------------3-----3-------|--------------3-----3-------|


G|----------------------------|----------------------------|
D|----------------------------|----------------------------|
A|----------------------------|--0-----------------0-------|
E|-----------------------3----|-----------------------3----|


G|----------------------------|------------0----0----2------|
D|-----------------2-----2----|------0----------------------|
A|--0-------------------------|--0------0----------------0--|
E|----------------------------|-----------------------------|


G|----------------------------|----------------------------|
D|-----0----------------------|----------------------------|
A|--------3--------------3----|--0--------3-----------0----|
E|----------------------------|--------------3--3--3-------|


G|----------------------------|----------------------------|
D|----------------------------|----------------------------|
A|-----------------------0----|--0--------------------0----|
E|--------------3--3--3-------|-----3-----------3--3-------|


G|-----------------------0----|--2--2-----------2--0--2----|
D|----------------------------|----------------------------|
A|----------------------------|----------------------------|
E|----------------------------|----------------------------|


G|--------0--2----------------|---0--2-----2---0------2----|
D|----------------------------|----------------------------|
A|----------------------------|----------------------------|
E|----------------------------|----------------------------|


G|-----2--0-------------------|----------------------------|
D|----------------------------|----------------------------|
A|----------------------------|--0--0--------2--------3----|
E|----------------------------|----------------------------|


G|--------------------------------------------0--1----|
D|----------------------------------------------------|
A|--------0-------------------------------------------|
E|----------------------------------------------------|


G|--2-------------------------|----------------------------|
D|----------------------------|----------------------------|
A|-----------------0-----0----|-----------------0-----0----|
E|--------------------3-------|--------------3-----3-------|


G|--------------2--0--2-------|----------------------------|
D|----------------------------|--------------2-------0-----|
A|----------------------------|--0----------------------3--|
E|-----------------------3----|----------------------------|


G|----------------------------|----------------------------|
D|----------------------------|----------------------------|
A|--0--------0-----0-----0----|-----------------------0----|
E|--------------3-----3-------|--------------3--3--3-------|


G|--2--2-----------2--0--2----|-----------------2----------|
D|----------------------------|----------------------------|
A|----------------------------|----------------------------|
E|----------------------------|----------------------------|


G|-----2-----2--0--------2----|-----2--0-------------------|
D|----------------------------|----------------------------|
A|----------------------------|----------------------------|
E|----------------------------|----------------------------|


G|----------------------------|----------------------------|
D|----------------------------|----------------------------|
A|--0--0--------2--------3----|-----0----------------------|
E|----------------------------|-----------------------3----|


G|----------------------------|----------------------------|
D|----------------------------|----------------------------|
A|--0--------------0-----0----|-----------------------0----|
E|--------------------3-------|--------------3--3--4-------|


G|----------------------------|----------------------------|
D|----------------------------|--------------2-----2-------|
A|-----------------------0----|----------------------------|
E|--------------3--3--3-------|----------------------------|


G|----------------------------|---------------------------||
D|----------------------------|---------------------------||
A|--0-------------------------|--0------------------------||
E|--------------------3--3----|---------------------------||


            
            
Suggest correction
Creating personal tab
Creating personal tab
You can edit any tab online and save it as your Personal.

You can edit, replace or remove any tab part or add personal notes – all changes will be seen only by you.

Personal tabs can be accessed anytime from any device, even offline.
Learn more »
Give kudos to tab author, rate the tab!
1 2 3 4 5
comments
print report bad tab
guest
You may want to rate the tab now too:
select rating
Wanna post a correction for this tab? Suggest correction