Oops, an error
Loading. Please wait.
We have Chord Pro version of Lets Get It On.
It's the closest thing you can get to the original song and it has interactive parts. Check out the tab »
×
11,606 views 33 this week
1 commentread comment
1 2 3 4 5
x 6
add to favorites
×
Save as Personal and add changes to this tab that will be seen only by you. Learn more ›
×
You can save this tab as Personal to edit and correct it or add notes. All changes will be seen only by you. Learn more »
launch autoscroll
font size
0
reset
guitar tuner
edit
Autoscroll
slow
fast
+/-
esc
set tempo
stop
Author
G|-----------------------------------------------------------------|
D|-----------------------------------------------------------------|
A|-6---------------------------------------------------------------|
E|-------------3-------3-------3---4-----------6-------6-------6-8-|
   1 + 2 + 3 + 4 + 1 + 2 + 3 + 4 + 1 + 2 + 3 + 4 + 1 + 2 + 3 + 4 +

G|-----------------------------------------------------------------|
D|-----------------------------------------------------------------|
A|-6-----------------------------------------------------------6---|
E|-------------3-------3-------3---4-----------6-----------6-8---8-|
   1 + 2 + 3 + 4 + 1 + 2 + 3 + 4 + 1 + 2 + 3 + 4 + 1 + 2 + 3 + 4 +

0:13
G|-----------------------------------------------------------------|
D|-----------------------------------------------------------------|
A|-6---------------------------------------------------------------|
E|-------------3-------3-------3---4-----------6-------6-------6-8-|
   1 + 2 + 3 + 4 + 1 + 2 + 3 + 4 + 1 + 2 + 3 + 4 + 1 + 2 + 3 + 4 +

G|-----------------------------------------------------------------|
D|-----------------------------------------------------8-----------|
A|-6---------------------------------------------------------------|
E|-------------3-------3-------3---4-----------6---------------6-8-|
   1 + 2 + 3 + 4 + 1 + 2 + 3 + 4 + 1 + 2 + 3 + 4 + 1 + 2 + 3 + 4 +

0:25
G|-----------------------------------------------------------------|
D|---------------------------------------------------8-------------|
A|-6---------------------------------------------------------------|
E|-------------3-------3-------3---4-----------6-------6-------6-8-|
   1 + 2 + 3 + 4 + 1 + 2 + 3 + 4 + 1 + 2 + 3 + 4 + 1 + 2 + 3 + 4 +

G|-----------------------------------------------------------------|
D|-----------------------------------------------------8---8-------|
A|-6-----6-6-------------------------------------------------8-----|
E|-------------3-------3-------3---4-------4---6-----6---------6-8-|
   1 + 2 + 3 + 4 + 1 + 2 + 3 + 4 + 1 + 2 + 3 + 4 + 1 + 2 + 3 + 4 +

0:36
G|-----------------------------------------------------------------|
D|-----------------------------------------------------------------|
A|-6-----6-6-------------------------------------------------------|
E|-------------3-------3-------3---4-------4---6-------6-------6-8-|
   1 + 2 + 3 + 4 + 1 + 2 + 3 + 4 + 1 + 2 + 3 + 4 + 1 + 2 + 3 + 4 +

G|--------------------------------------------------------------8--|
D|---------------------------5----------------------------/8p6-----|
A|-6-------6-------------------------------------------------------|
E|-------------3-------3-------3---4-------4---6-------6-----------|
   1 + 2 + 3 + 4 + 1 + 2 + 3 + 4 + 1 + 2 + 3 + 4 + 1 + 2 + 3 + 4 +

0:48
G|-----------------------------------------------------------------|
D|-----------------------------------------------------------------|
A|-6-----6-6-------------------------------------------------------|
E|-------------3-------3-------3---4-------4---6-------6-------6-8-|
   1 + 2 + 3 + 4 + 1 + 2 + 3 + 4 + 1 + 2 + 3 + 4 + 1 + 2 + 3 + 4 +

G|-----------------------------------------------------------------|
D|-----------------------------------------------------------------|
A|-6-----6-6-----------------------------------------------6-------|
E|-------------3-------3-------3---4-------4---6-------6-8---8-6-8-|
   1 + 2 + 3 + 4 + 1 + 2 + 3 + 4 + 1 + 2 + 3 + 4 + 1 + 2 + 3 + 4 +

1:00
G|-----------------------------------------------------------------|
D|-----------------------------------------------------------8-----|
A|-6-----6-6-------------------------------------------------------|
E|-------------3-------3-------3---4-------4---6-------6---6---6-8-|
   1 + 2 + 3 + 4 + 1 + 2 + 3 + 4 + 1 + 2 + 3 + 4 + 1 + 2 + 3 + 4 +

G|-----------------------------------------------------------------|
D|-----------------------------------------------------------------|
A|-6---6-6-6-------------------------------------------------------|
E|-------------3-------3-------3---4-------4---3-4-6---6-------6-8-|
   1 + 2 + 3 + 4 + 1 + 2 + 3 + 4 + 1 + 2 + 3 + 4 + 1 + 2 + 3 + 4 +

1:11
G|-----------------------------------------------------------------|
D|-----------------------------------------------------------------|
A|-6-------6-------------------------------------------------------|
E|-------------3-------3-------3---4-------4---6-------6-------6-8-|
   1 + 2 + 3 + 4 + 1 + 2 + 3 + 4 + 1 + 2 + 3 + 4 + 1 + 2 + 3 + 4 +

G|-----------------------------------------------------------------|
D|-----------------------------------------------------8---8-------|
A|-6-----6-6-------------------------------------------------------|
E|-------------3-------3-------3---4-------4---6-----6---------6-8-|
   1 + 2 + 3 + 4 + 1 + 2 + 3 + 4 + 1 + 2 + 3 + 4 + 1 + 2 + 3 + 4 +

1:22
G|-----------------------------------------------------------------|
D|-----------------------------------------------------8---8-------|
A|-6-----6-6-------------------------------------------------8-----|
E|-------------3-------3-------3---4-------4---6-----6---------6-8-|
   1 + 2 + 3 + 4 + 1 + 2 + 3 + 4 + 1 + 2 + 3 + 4 + 1 + 2 + 3 + 4 +

G|-----------------------------------------------------------------|
D|-----------------------------------------------------------------|
A|-6-------6-------------------------------------------------------|
E|-------------3-------3-------3---4-------4---6-------6-------6-5-|
   1 + 2 + 3 + 4 + 1 + 2 + 3 + 4 + 1 + 2 + 3 + 4 + 1 + 2 + 3 + 4 +

1:34
G|-----------------------------------------------------------------|
D|---------------6-6---6-------------------------------------------|
A|-------------------------3-4---6---------------3-----3-----4---4-|
E|-4-------4-----------------------4-------4-----------------------|
   1 + 2 + 3 + 4 + 1 + 2 + 3 + 4 + 1 + 2 + 3 + 4 + 1 + 2 + 3 + 4 +

G|-----------------------------------------------------------------|
D|-----------------------------------------------------8---8-------|
A|-6-------6-------------------------------------------------8-----|
E|-------------3-------3-------3---4-------4---6-----6---------8-6-|
   1 + 2 + 3 + 4 + 1 + 2 + 3 + 4 + 1 + 2 + 3 + 4 + 1 + 2 + 3 + 4 +

1:45
G|-----------------------------------------------------------------|
D|---------------------------------------------6-6---6-6-----------|
A|---------------3---3-4---5---6---------------------------3-4---5-|
E|-4-------4-----------------------4-------4-----------------------|
   1 + 2 + 3 + 4 + 1 + 2 + 3 + 4 + 1 + 2 + 3 + 4 + 1 + 2 + 3 + 4 +

G|-----------------------------------------------------------------|
D|-----------------------------------------------------------------|
A|-6-------6-------------------------------------------------------|
E|-------------3-------3-------3---4-------4---6-------6-6-6---5---|
   1 + 2 + 3 + 4 + 1 + 2 + 3 + 4 + 1 + 2 + 3 + 4 + 1 + 2 + 3 + 4 +

1:56
G|-----------------------------------------------------------------|
D|---------------------------------------------6-6-----------------|
A|---------------3-----3---4-5-6-----------------------3---4-----5-|
E|-4-------4-----------------------4-------4---------4-------------|
   1 + 2 + 3 + 4 + 1 + 2 + 3 + 4 + 1 + 2 + 3 + 4 + 1 + 2 + 3 + 4 +

G|-----------------------------------------------------------------|
D|-----------------------------------------------------------------|
A|-6-------6-------------------------------------------------------|
E|-------------3-------3-------3---4-------4---6-------6-------5---|
   1 + 2 + 3 + 4 + 1 + 2 + 3 + 4 + 1 + 2 + 3 + 4 + 1 + 2 + 3 + 4 +

2:08
G|-----------------------------------------------------------------|
D|---------------6---6---------------------------------------------|
A|-----------------------------------------------------------------|
E|-4-----4-4---4-------4---4---3---1-----------1-------1-----1-3-4-|
   1 + 2 + 3 + 4 + 1 + 2 + 3 + 4 + 1 + 2 + 3 + 4 + 1 + 2 + 3 + 4 +

G|-----------------------------------------------------------------|
D|---------------------8---8---------------------------------------|
A|-------------------8---8---8-------------------------------------|
E|-6-----------6---------------6---6-------------------------------|
   1 + 2 + 3 + 4 + 1 + 2 + 3 + 4 + 1 + 2 + 3 + 4 + 1 + 2 + 3 + 4 +

2:20
G|-----------------------------------------------------------------|
D|-----------------------------------------------------8---8-------|
A|-6---------------------------------------------------------------|
E|-------------3-------3-------3---4-----------6-----6---------6-8-|
   1 + 2 + 3 + 4 + 1 + 2 + 3 + 4 + 1 + 2 + 3 + 4 + 1 + 2 + 3 + 4 +

G|-----------------------------------------------------------------|
D|-----------------------------------------------------8---8-------|
A|-6-------6-------------------------------------------------------|
E|-------------3-------3-------3---4-------4---6-----6---------6-8-|
   1 + 2 + 3 + 4 + 1 + 2 + 3 + 4 + 1 + 2 + 3 + 4 + 1 + 2 + 3 + 4 +

2:31
G|---------------------------------------------------------------------------|
D|----------------------------------------------------------------8----------|
A|-6--66---------------------------6---6--66---------------------------6-----|
E|--------3--3--3h4--4--6--6---6-8---6--------3--3--3-4--4--6------------6-8-|

2:42
G|------------------------------------------------------------------|
D|------------------------8-----------------------------------------|
A|-6---6--------------------------6---6-----------------------------|
E|-------3--3--3h4--4--6------6-8-------3--3--3334--4--6--66-6--6-8-|

2:54
G|--------------------------------------------------------------------------|
D|-----------------------------8-8------------------------------------------|
A|-6--66---------------------------8-----6--66------------------------------|
E|--------3--3-3--334--44--6--6------6-8--------3--3333--3h4--44--6--6--6-5-|

3:06
G|----------------------------------------------------------------|
D|-------------------------------------------------------888-876--|
A|--------3-4-56-------3-3334-4-56---6----------------------------|
E|-4--4----------4--4------------------3--3--3h4--4--6--6---------|

3:16
G|-----------------------------------------------------------|
D|-----------------------------------------------------------|
A|-3-3456-3------3-34--------6---6---------------------------|
E|---------64--4-------6-8-6-------3--3--3h4--4--6--6--6-5-4-|

3:28
G|--------------------------------------------------------------|
D|--------------------------------------------------------------|
A|-------33-34-5-6------3-34-55-6-6---6-------------------------|
E|-4---44---------4--4------------------3--3--3h4--4--6--6--6-5-|

3:39
G|---------------------------------------------------------|
D|-------------------------------------------8---8---------|
A|---------------------------------------------------------|
E|-4--4--44-44--43-1--1--11-11--1346--6----6---6---6-6-----|

3:50
G|------------------------------------------------------------------|
D|-----------------------8-------------------------------8-8-8------|
A|---6---------------------------6----------------------------------|
E|-8------3---3h4--4--6------6-8------3--3--3h4--4--6--6--------6-8-|

4:02
G|---------------------------------------------------------------------|
D|--------------------------8---8--------------------------------------|
A|-6---6-----------------------------66-66-----------------------------|
E|-------3--3--3h4--4--6--6---6---66--------3--3--3h4--4--6--6666--6-8-|

4:13
G|----------------------------------------------------------------------------------|
D|----------------------------------------------------------------------------------|
A|-66666------------------------6---6-------66666-----------------------6---6-------|
E|-------3--3333-3-44--44--6--6---6---6-4-6-------3--33333-34--44--6--6---6---6-4-6-|

4:25
G|----------------------------------------------|
D|o-----------5----5-----------------8--8-------|
A|o-66-66---------------------------------8-----|
E|---------3----3----3--34--44--6--6--------6-8-|

4:30
G|-----------------------------------------------|
D|-----------5----5------------------8--8-------o|
A|-66-66----------------------------------8-----o|
E|--------3----3----3--344--44--6--6--------6-8--|
Tabbed by Dave Vucko

            
            
Suggest correction
Creating personal tab
Creating personal tab
You can edit any tab online and save it as your Personal.

You can edit, replace or remove any tab part or add personal notes – all changes will be seen only by you.

Personal tabs can be accessed anytime from any device, even offline.
Learn more »
comments
print report bad tab
1 comment total.
0 reply
miles.wiggins 10 Dec 06, 2016 02:25 PM, edited at 07:30 pm

Great tab with correct fills! Only correction I see/hear is the timing. It should be 16th notes (1 e + a) instead of (1 + 2 +) Listen to the drums hitting that snare on beats 2 and 3!

guest
You may want to rate the tab now too:
select rating
Wanna post a correction for this tab? Suggest correction