Oops, an error
Loading. Please wait.

Two Can Have A Party Bass

662 views 1 this week
no commentswrite comment
1 2 3 4 5
3 more votes to show rating
add to favorites
launch autoscroll
font size
0
reset
guitar tuner
×
Best way to learn
"Two Can Have A Party"
Autoscroll
slow
fast
+/-
esc
set tempo
stop
Author
Difficulty
Tuning
intermediate
D# G# C# F#
Two Can Have A Party
Song Writers: Bristol/Fuqua/Kemp
This Version by Marvin Gaye & Tammi Terrell
Original by Tammi Terrell in 1966
Marvin Gayes voice overdubbed in 1967
Backing Band: The Funk Brothers
Bassist: James Jamerson
Tabbed here by bass50611
Any comments email me at: goldenoldie.benson@sky.com
Note the tuning

Intro:
F#|----------------------------------------|
C#|-----0-1-2222222----0-1-2222222---0-1---|
G#|---22--------------2-------------2------|
D#|----------------------------------------|

Verse:
F#|-------------------------------------------------------------------|
C#|-2222222--0-1-2222222----------------0-1-2222222--0-1-2222222--0-1-|
G#|---------2----------------0-222222-22------------2------------2----|
D#|----------------------2-4------------------------------------------|

F#|---------------------------------------------------------------0-1-|
C#|-2222222--0-1-2222222----------------0-1-2222222--0-1-2222222-2----|
G#|---------2----------------0-222222-22------------2-----------------|
D#|----------------------2-4------------------------------------------|

Bridge:
F#|---2222222-1---222-1---222-1------------------------------------|
C#|------------2-------2-------2---44-2-44-------------------------|
G#|---------------------------------------4--------0-1-22-0-22-----|
D#|-----------------------------------------2-2-22-------------2---|

F#|-------------------------------------|
C#|-------------------------------0-1---|
G#|---22-0-22---22-0-22---22-0-22-------|
D#|-----------2---------2---------------|

End of Bridge & Instrumental Break use Verse:

Repeat Bridge:

Outro:
F#|-----------------------------------------|
C#|---2222222--0-1-2222222------------------|
G#|-----------2-------------0-1-222222-22---|
D#|------------------------2----------------|

Keep Repeating this bit to End/Fade
F#|--------------------------------|
C#|---0-1-2222222------------------|
G#|----------------0-1-222222-22---|
D#|---------------2----------------|
Suggest correction
Give kudos to tab author, rate the tab!
1 2 3 4 5
comments
print report bad tab
guest
You may want to rate the tab now too:
select rating
Wanna post a correction for this tab? Suggest correction