Oops, an error
Loading. Please wait.

Whats Going On Bass Tab

version 1
version 1

Whole song

66,304 views 156 this week
no commentswrite comment
1 2 3 4 5
x 10
add to favorites
launch autoscroll
font size
0
reset
guitar tuner
Autoscroll
slow
fast
+/-
esc
set tempo
stop
Help us to improve Ultimate-Guitar.com Take our survey!
×
Artist: Marvin Gaye
Song: What's Going On


G|-------------------------|-------------------------|
D|-------------------------|-------------------2-----|
A|-----------2-2--4--2--4--|-----------2-2--4-----4--|
E|--0----0-----------------|--0----L-----------------|

G|-------------------------|--------------------------|--------------------------|
D|-------------------------|--------------------------|--------------------2-----|
A|-----------2-2--4--2--4--|---------------4--4-2--4--|------------2-2--4-----4--|
E|--0----L-----------------|--0----L---4--------------|--0--0--L-----------------|
 
G|------------1----------1--|--------------------------|-----------------------|
D|--2--2--2-----2---4-L-----|--------------------------|--------------------1--|
A|--------------------------|--4----L---4-L-2----2--3--|--4--------4---4-L-----|
E|--------------------------|-----------------4--------|-----------------------|

G|-------------------------|---------------1-L--4--|--6---------------1--|
D|--2----L-----------2-----|-----------2-----------|---------------------|
A|-----------2-2--4-----4--|-----------------------|---------------------|
E|-------------------------|--0--------------------|---------------------|
  
G|----------------------------|--------------------------|
D|----------------------------|---------------2---4-2----|
A|--4---2-----2-2--4--4p-2----|-----------------4-----4--|
E|--------4----------------4--|--2--2------L-------------|
  
G|-------------------------|-----------------------2--|
D|--4----L-----------------|-----------1-L-2----4-----|
A|-----------4-----4-L--3--|--2----L------------------|
E|-------------2-----------|--------------------------|
 
G|--4-2----4-2-----------------|--------------------------|
D|------4------4--------2------|--------------------2-----|
A|----------------2--4----4-2--|------------2-2--4-----4--|
E|-----------------------------|--0--0--L-----------------|

G|------------1----------1--|--------------------------|-----------------------|
D|--2--2--2-----2---4-L-----|--------------------------|--------------------1--|
A|--------------------------|--4----L---4-L-2----2--3--|--4--------4---4-L-----|
E|--------------------------|-----------------4--------|-----------------------|

G|-------------------------|---------------1-L--4--|--6---------------1--|
D|--2----L-----------2-----|-----------2-----------|---------------------|
A|-----------2-2--4-----4--|-----------------------|---------------------|
E|-------------------------|--0--------------------|---------------------|
 
G|----------------------------|--------------------------|
D|----------------------------|---------------2---4-2----|
A|--4---2-----2-2--4--4p-2----|-----------------4-----4--|
E|--------4----------------4--|--2--2------L-------------|

G|-------------------------|-----------------------2-3-|
D|--4----L-----------------|-----------1-L-2----4------|
A|-----------4-----4-L--3--|--2----L-------------------|
E|-------------2-----------|---------------------------|
  
G|--4-2-----------------------|--------------------------|
D|------4---------------------|--------------------------|
A|---------2----2--2--0-------|--------------------4--3--|
E|----------------------4-2-4-|--2--2--L---5-5--4--------|

G|------------------------------|--------------------------|
D|------------------------------|--------------------------|
A|--2-2-2-2---------------------|--------------------4--3--|
E|----------5---5-4---5-4-4-0-0-|--2--2--L---2-2--5--------|

G|---------------------4---|--------------------------|------------------------|
D|---------1--L-2---4----4-|--4--4--L-----------------|---------------------1--|
A|--2----------------------|------------4-----4-L--3--|--2--------2--2-4-L-----|
E|-------------------------|--------------2-----------|------------------------|

G|--------------------1--|------------------------|--------------------1---|
D|--2--------2---4-L-----|------------------------|-----------2---4-L----2-|
A|-----------------------|--4--4---------4--2--4--|------------------------|
E|-----------------------|------------4-----------|--0---------------------|

G|--------------------------|---------------------------|
D|--------------------------|----------------7----7-----|
A|--4-----------4-4-3-3-2-2-|--0--0--L---7-L----7----7--|
E|-----------4--------------|---------------------------|
 
G|--------------------------|----------------------------|
D|--------------7-----7-----|----------------7-----7-----|
A|------------7-----7----7--|------------7-7-----7----7--|
E|--5--5--L-----------------|--5--5--L-------------------|

G|----------------------------|----------------------------|
D|----------------7-----7-----|----------------7-----7-----|
A|------------7-7-----7----7--|------------7-7-----7----7--|
E|--5--5--L-------------------|--5--5--L-------------------|
 
G|------------------------------|-----------------------------|
D|----------------7-----7---7---|----------------7-----7------|
A|------------7-7-----7---7---7-|------------7-7-----7---7-7--|
E|--5--5--L---------------------|--5--5--L--------------------|
 
G|-----------------------------|--------------------------|
D|----------------7-----7------|-----------------------7--|
A|------------7-7-----7---7-7--|-----------6--L-7---9-----|
E|--5--5--L--------------------|--7--7--L-----------------|

G|-----------------------------|----------------------------|
D|--9---9----------------------|-------------------------7--|
A|--------6-6--7-L--8--9-9-----|------6-6-6--7-L-7--7-9-----|
E|-------------------------9-9-|--7-------------------------|
 
G|-------------------------------|--------------------------|
D|--9-7----9-7----9-7------------|--------------------2-----|
A|------9------9------9------6---|------------2-2--4-----4--|
E|-----------------------7-9---9-|--0--0--L-----------------|

G|------------1----------1--|--------------------------|-----------------------|
D|--2--2--2-----2---4-L-----|--------------------------|--------------------1--|
A|--------------------------|--4----L---4-L-2----2--3--|--4--------4---4-L-----|
E|--------------------------|-----------------4--------|-----------------------|

G|-------------------------|---------------1-L--4--|--6---------------1--|
D|--2----L-----------2-----|-----------2-----------|---------------------|
A|-----------2-2--4-----4--|-----------------------|---------------------|
E|-------------------------|--0--------------------|---------------------|

G|----------------------------|--------------------------|
D|----------------------------|---------------2---4-2----|
A|--4---2-----2-2--4--4p-2----|-----------------4-----4--|
E|--------4----------------4--|--2--2------L-------------|

G|-------------------------|-----------------------2-3-|
D|--4----L-----------------|-----------1-L-2----4------|
A|-----------4-----4-L--3--|--2----L-------------------|
E|-------------2-----------|---------------------------|

G|--4-2-----------------------|--------------------------|
D|------4---------------------|--------------------------|
A|---------2----2--2--0-------|--------------------4--3--|
E|----------------------4-2-4-|--2--2--L---5-5--4--------|

G|------------------------------|--------------------------|
D|------------------------------|--------------------------|
A|--2-2-2-2---------------------|--------------------4--3--|
E|----------5---5-4---5-4-4-0-0-|--2--2--L---2-2--5--------|

G|---------------------4---|--------------------------|------------------------|
D|---------1--L-2---4----4-|--4--4--L-----------------|---------------------1--|
A|--2----------------------|------------4-----4-L--3--|--2--------2--2-4-L-----|
E|-------------------------|--------------2-----------|------------------------|

G|--------------------1--|------------------------|--------------------1---|
D|--2--------2---4-L-----|------------------------|-----------2---4-L----2-|
A|-----------------------|--4--4---------4--2--4--|------------------------|
E|-----------------------|------------4-----------|--0---------------------|

G|--------------------------|---------------------------|
D|--------------------------|----------------7----7-----|
A|--4-----------4-4-3-3-2-2-|--0--0--L---7-L----7----7--|
E|-----------4--------------|---------------------------|

G|--------------------------|----------------------------|
D|--------------7-----7-----|----------------7-----7-----|
A|------------7-----7----7--|------------7-7-----7----7--|
E|--5--5--L-----------------|--5--5--L-------------------|

G|----------------------------|----------------------------|
D|----------------7-----7-----|----------------7-----7-----|
A|------------7-7-----7----7--|------------7-7-----7----7--|
E|--5--5--L-------------------|--5--5--L-------------------|

G|------------------------------|-----------------------------|
D|----------------7-----7---7---|----------------7-----7------|
A|------------7-7-----7---7---7-|------------7-7-----7---7-7--|
E|--5--5--L---------------------|--5--5--L--------------------|

G|-----------------------------|-----------------------------|
D|----------------7-----7------|----------------7-----7------|
A|------------7-7-----7---7-7--|------------7-7-----7---7-7--|
E|--5--5--L--------------------|--5--5--L--------------------|

G|-----------------------------|-----------------------------|
D|----------------7-----7------|----------------7-----7------|
A|------------7-7-----7---7-7--|------------7-7-----7---7-7--|
E|--5--5--L--------------------|--5--5--L--------------------|

G|-----------------------------||
D|----------------7-----7------||
A|------------7-7-----7---7-7--||
E|--5--5--L--------------------||



************************************

| p  Pull-off
| L  Tied note

************************************
Suggest correction
comments
print report bad tab
guest
You may want to rate the tab now too:
select rating
Wanna post a correction for this tab? Suggest correction