Oops, an error
Loading. Please wait.

Principio Y Fin Tab

by Marwan
129 views 1 this week
no commentswrite comment
1 2 3 4 5
3 more votes to show rating
add to favorites
launch autoscroll
font size
0
reset
how to read this tab
guitar tuner
×
Best way to learn
"Principio Y Fin"
Autoscroll
slow
fast
+/-
esc
set tempo
stop
Acordes        EADGBE
               ------
Gmaj7:         334433  (cejilla 3º traste)
D7sus4:        xx0213
Esus2/G:       024000
Bm:            x24432  (cejilla 2º traste)
D#sus2:        x54232  (cejilla 2º traste)
Bm7add6/C:     x34030
Bm7add6:       x24030
Am7:           x02010
G:             320003
D/F#:          200232
Em7:           020070
               ------
               EADGBE

- PRINCIPIO -

INTRO
   Gmaj7        D7sus4      Esus2/G    Bm     D#sus2 Bm7add6/C Bm7add6
E -----------------2/3------------0--------------------------------0------
B ----3-53-------1---1---------0--0------3------3------3---------3-3-----
G ---4-----4-----2-----2-------0-0-------4------2------0-0-0-----0---0----
D --4-----------0-------0-----4---------4------4------4---4-----4---------
A ---------------------------2---------2------5------3---------2----------
E -3------------------------0---------------------------------------------

   Am7         D7sus4
E -------0--------3--2--2---
B ----0/1-1------1-1-----1--
G ---0-----0----2------2----
D --2----------0-----0------
A -0------------------------
E --------------------------

FIN INTRO


   Gmaj7               D7sus4            Esus2/G      Bm    D#sus2Bm7add6/C
E ---------------------------2/3----------------0--------------------------
B --------3-53-------------1----1-----------0----0------3-----3------3----
G ------4-------4---------2--------2--------0-0---------4-----2------0--0-0
D ----4----------------0-------------0-----4-----------4-----4------4----4-
A ----------------------------------------2-----------2-----5------3-------
E -3-------------------------------------0---------------------------------
  Hay palabras que no hablo en conversaciones hay millones de canciones que

     Bm7add6     Am7         D7sus4
E --------0------------0--------3-2----------
B -------3-3--------0/1-1------1----1--------
G ------0---0------0-----0----2-------2------
D -----4----------2----------0---------------
A ---2-----------0---------------------------
E -------------------------------------------
  otros mucho  mejores inventaron

   Gmaj7               D7sus4            Esus2/G      Bm    D#sus2Bm7add6/C
E ---------------------------2/3----------------0--------------------------
B --------3-53-------------1----1-----------0----0-------3-----3-----3----
G ------4-------4---------2--------2--------0-0----------4-----2-----0--0-0
D ----4----------------0-------------0-----4------------4-----4-----4----4-
A ----------------------------------------2------------2-----5-----3-------
E -3-------------------------------------0---------------------------------
  Hay preguntas que nunca sabré   responderte y    tengo  antecedentes

      Bm7add6     Am7         D7sus4          Gmaj7
E ---------0---------------1------3-2-----------------
B --------3-3--------0/10--0----1----1----------3--3-
G -------0---0------0-----------2-------2--------4--4-
D ------4----------2-----------0----------------4-----
A ----2-----------0----------------------------3------
E --------------------------------------------3----3--
  que no me salvan hoy    de  ser el mismo error

          Am7           D7sus4     G       DF       Em7
E --------------0----------3-2-----------------------------0----
B -----------0/1-1--------1---1-------0--------3---------3--3---
G ----------0-----0------2--2--2-----0--------2---------0----0--
D ---------2------------0-----------0--------0---------2--------
A --------0-----------------------------------------------------
E ---------------------------------3-------2---------0----------
  Fue mi padre un refugiado   que sólo llego hasta aquí

          Am7           D7sus4     G          DF     Em7
  y mi madre en su    Duero con cariño aprendió a vestir

           Am7          D7sus4
E ---------------0---------3-2------
B ------------0/1-1-------1---1-----
G -----------0-----0-----2--2--2----      SIGUE CON
D ----------2-----------0-----------      LA INTRO
A ---------0------------------------
E ----------------------------------
  nuestra vida con un traje de calor

Gmaj7          D7sus4                    Esus2/G
Mis amigos un oasis cuando habito el desierto
       Bm           D#sus2        Bm7add6/C
el respaldo que preciso en mi asiento
       Bm7add6           Am7           D7sus4
su nombre es el de los buenos de los cuentos

Gmaj7        D7sus4                 Esus2/G
Siempre ignorando los efectos secundarios
       Bm          D#sus2        Bm7add6/C
No quisimos conservar aquel resguardo
     Bm7add6              Am7
aprobando exámenes comunitarios
        D7sus4                     Gmaj7
nos burlamos de eso que llaman fracaso

         Am7        D7sus4    G      DF      Em7
Cuantas noches de acordes victorias copas de más
         Am7       D7sus4      G       DF    Em7
Nuestra risa esparcida por la barra de aquel bar
          Am7             D7sus4      INTRO
Aquí hay cervezas fiestas en la facultad


Gmaj7         D7sus4                        Esus2/G
Cuando esta muerte de la que hablen sea la mía
      Bm    D#sus2Bm7add6/C
sobreviviré al espejo
         Bm7add6          Am7             D7sus4
si mi ausencia ocupa un hueco en vuestra vida

     Gmaj7             D7sus4         Esus2/G
Al tiempo le daré un buen apretón de manos
         Bm    D#sus2 Bm7add6/C
por prestarme tantos años,
  Bm7add6               Am7
reir no encharquéis el día
           D7sus4                  Gmaj7
y que el viento borra todas mis cenizas

         Am7        D7sus4    G      DF      Em7
cuantas noches de acordes victorias copas de más
         Am7        D7sus4     G       DF    Em7
nuestra risa esparcida por la barra de aquel bar

          Am7           D7sus4     G       DF  Em7
E --------------0----------3-2--------------------
B -----------0/1-1--------1---1-------0----3----0-
G ----------0-----0------2--2--2-----0-----2----0-
D ---------2------------0-----------0------0----2-
A --------0---------------------------------------
E ---------------------------------3-------2----0-
aquí hay cervezas fiestas en la facultad

        Am7           D7sus4    G     DF        Em7
fue mi padre un refugiado inberbe llego hasta aquí
      Am7           D7sus4   G          DF     Em7
y mi madre con Faustina y cariño aprendió a servir

            Am7      D7sus4    G    DF    Em7
en nuestra vida un plato de calor
            Am7      D7sus4    G    DF    Em7
en nuestra vida un plato de calor

          Am7           D7sus4
E --------------0----------3-2-----
B -----------0/1-1--------1--------
G ----------0-----0------2--2------
D ---------2------------0----0-----
A --------0------------------------
E ---------------------------------
en nuestra vida  un plato...          de calor

   Gmaj7        D7sus4      Esus2/G    Bm     D#sus2 Bm7add6/C Bm7add6
E -----------------2/3------------0---------------------------------------
B ----3-53-------1---1---------0--0------3------3------3---------3------
G ---4-----4-----2-----2-------0-0-------4------2------0-0-0-----0-0------
D --4-----------0-------0-----4---------4------4------4---4-----4---------
A ---------------------------2---------2------5------3---------2----------
E -3------------------------0---------------------------------------------

   Am7    D7sus4  G
E -0------2/3-----3------
B -1------1-------0------
G -0------2-------0------
D -2------0-------0------
A -0--------------2------
E ----------------3------

- FIN -

Ahí va mi segunda pequeña aportación.
Hay pequeñas variaciones que no están reflejadas.
Es posible que los nombres de los acordes no sean correctos del todo
(medio me los inventé), por lo que es mejor guiarse por el tabulado.

Carol, a ver si se te quita con esta por fin el miedo a las cejillas.
Suggest correction
Give kudos to tab author, rate the tab!
1 2 3 4 5
comments
print report bad tab
guest
You may want to rate the tab now too:
select rating
Wanna post a correction for this tab? Suggest correction