Oops, an error
Loading. Please wait.

Passionate Kisses bass

272 views 6 this week
no commentswrite comment
1 2 3 4 5
3 more votes to show rating
add to favorites
×
Save as Personal and add changes to this tab that will be seen only by you. Learn more ›
×
You can save this tab as Personal to edit and correct it or add notes. All changes will be seen only by you. Learn more »
launch autoscroll
font size
0
reset
guitar tuner
edit
Autoscroll
slow
fast
+/-
esc
set tempo
stop
Author
Difficulty
Passionate Kisses
Third single by Mary Chapin Carpenter from her album Come On Come On.
Reached number 4 in Billboard Country Charts 1993. Tab by bass50611
Although not exact as original this is how I played it on stage with 
my band a long time ago. Comments at bass254@btinternet.com 

Intro: (This Bit Played under Piano Start)
   .       .       .       .
G|-----------------------------
D|-12------11------9-----------
A|-------------------------10--
E|-----------------------------

G|-----------------------------------------------------------------
D|-------4---7--5-4--------5--4----------4---7--5-4--------5---4---
A|-5---7-----------7-----------7---5---7-----------7-------------7-
E|--------------------7-77----------------------------7-77---------

Verse:
G|-----------------------------------------------------
D|-----------------------------------------------------
A|-5-55---------2-22------2-3-5-55-------2-22------2-3-
E|-------5-55---------3-33---------5-55--------3-33----

Bridge 1:
G|---------------------------
D|---------------------------
A|-5-55--------2-22------2-3-
E|-------2-22--------3-33----

Chorus 1:
G|--------------------------------------------------
D|--------5-55-4-----------5-55-4-----------5-55-4--
A|-5-55-5-------7---5-55-5-------7---5-55-5-------7-
E|--------------------------------------------------

Interlude 1 :
G|-------------------------------
D|-------4---7--5-4--------5--4--
A|-5---7-----------7-----------7-
E|--------------------7-77-------

Repeat Verse & Bridge 1:

Chorus 2:
G|----------------------------------------------------------------
D|--------5-55-4-----------5-55-4-----------5-55-4----------------
A|-5-55-5-------7---5-55-5-------7---5-55-5-------7---5-55---5-55-
E|----------------------------------------------------------------

Interlude 2:
G|----------------------------------------------------------------
D|------4--7--5-4----------5-4----0--2--4-------------------------
A|-5--7-----------7---2-22-----7----------------2-22--------------
E|-----------------------------------------2-22-------5-55---5-55-

Repeat Verse:

Bridge 2:            (Break)
G|---------------------
D|---------------------
A|-5-55--------2-22----
E|-------2-22--------3-

Chorus 3:                                               .  [Quavers]
G|-------------------------------------------------------------------
D|--------5-55-4----------5-55-4----------5-55-4---------------------
A|-5-55-5-------7--5-55-5-------7--5-55-5-------7--5-55-5------------
E|----------------------------------------------------------55555555-
:
G|--------------------------------------------------
D|--------5-55-4-----------5-55-4-----------5-55-4--
A|-5-55-5-------7---5-55-5-------7---5-55-5-------7-
E|--------------------------------------------------

Repeat Intro to End/Fade:


            
            
Suggest correction
Creating personal tab
Creating personal tab
You can edit any tab online and save it as your Personal.

You can edit, replace or remove any tab part or add personal notes – all changes will be seen only by you.

Personal tabs can be accessed anytime from any device, even offline.
Learn more »
Give kudos to tab author, rate the tab!
1 2 3 4 5
comments
print report bad tab
guest
You may want to rate the tab now too:
select rating
Wanna post a correction for this tab? Suggest correction