Oops, an error
Loading. Please wait.

Goodbye tab

5,231 views 9 this week
3 commentsread comments
1 2 3 4 5
1 last vote to show rating
add to favorites
×
Save as Personal and add changes to this tab that will be seen only by you. Learn more ›
×
You can save this tab as Personal to edit and correct it or add notes. All changes will be seen only by you. Learn more »
launch autoscroll
font size
0
reset
how to read this tab
guitar tuner
edit
Autoscroll
slow
fast
+/-
esc
set tempo
stop
Author
------------------------------------------------------------------

     MARY HOPKIN - GOODBYE (Lennon/McCartney) Released by apple on
                   28th March 1969 with SPARROW as the B side.
                   Number 2 in the U.K.

------------------------------------------------------------------

      Tabbed by:PJVillanueva





Please don't wake me until late tomorrow comes, 
And I will not be late. 
Late today when it becomes tomorrow. 
I will leave to go away.
 
Goodbye, goodbye, goodbye, goodbye my love goodbye.
 
Songs that lingered on my lips excite me now 
And linger on my mind. 
Leave your flowers at my door 
I'll leave them for the one who waits behind.
 
Far away my lover sings a lonely song 
And calls me to his side. 
When the song of lonely love 
Invites me on I must go to his side.
 
Goodbye, goodbye, goodbye, goodbye my love goodbye. 





           Use a capo on the 2nd fret for rythm guitar 



                                    
  
e|----7-\ 5------ 5-\-4-- ----4-\|2------ 2-P-0-- ----0-- 2/4-2--|
B|-------------------------------|--------------------0---0---0--|
G|8-----------6-----------4------|----2-----------1-------2/4-1--|
D|-------------------------------|-------------------------------|
A|-------------------------------|-------------------------------|
E|-------------------------------|-------------------------------|




  
e|0------ ------- ------- -------|4------ ----\-- 0------ -------|
B|0------------------------------|0-----------\---0--------------|
G|1------------------------------|4-----------\---1--------------|
D|-------------------------------|-------------------------------|
A|-------------------------------|-------------------------------|
E|-------------------------------|-------------------------------|

e|------- ------- ------- -------|------- ------- ------- --2-2-2|  
B|-------------------------------|--------------------------3-3-3|
G|-------------------------------|--------------------------2-2-2|
D|-------------------------------|--------------------------0-0-0|
A|-------------------------------|-------------------------------|
E|-------------------------------|-------------------------------|

e|4---4-- 4---4-- 4---4-- 4---4--|4---4-- 4---4-- 4---4-- 4---4--|
B|5---5---5---5---5---5---5---5--|5---5---5---5---5---5---5---5--|
G|4---4---4---4---4---4---4---4--|4---4---4---4---4---4---4---4--|
D|-------------------------------|-------------------------------|
A|-------------------------------|-------------------------------|
E|-------------------------------|-------------------------------|





e|2---2-- 2-2-2-- 2---2-- 2-2-2--|2---2-- 2-2-2--|
B|3---3---3-3-3---3---3---3-3-3--|2---2---2-2-2--|
G|2---2---2-2-2---2---2---2-2-2--|2---2---2-2-2--|
D|0---0---0-0-0---0---0---0-0-0--|4---4---4-4-4--|
A|-------------------------------|2H4-----4-4-4--|
E|-------------------------------|--------2-2-2--|
  Please    don't wake me until   late     
e|4---4-- 4---4-- 4---4-- 4---4--|4---4-- 4---4--|
B|5---5---5---5---5---5---5---5--|4---4---4---4--|
G|4---4---4---4---4---4---4---4--|4---4---4---4--|
D|-------------------------------|---------------|
A|-------------------------------|---------------|
E|-------------------------------|---------------|





e|2---2-- 2-2-2-- 2---2-- 2-2-2--|3---3-- 3-3-3-- 7---7-- 7-7-7--|
B|3---3---3-3-3---3---3---3-3-3--|3---3---3-3-3---8---8---8-8-8--|
G|4---4---4-4-4---4---4---4-4-4--|4---4---4-4-4---9---9---9-9-9--|
D|4---4---4-4-4---4---4---4-4-4--|5---5---5-5-5---9---9---9-9-9--|
A|2-------2-------2-------0------|5-------5-------7-------7------|
E|--------2----------------------|3-----------------------7------|
  morrow      comes           And I       will    not     be      
e|4---4-- 4---4-- 4---4-- 4---4--|5---5-- 5---5-- 5---5-- 5---5--|
B|5---5---5---5---5---5---5---5--|5---5---5---5---7---7---7---7--|
G|6---6---6---6---6---6---4---4--|6---6---6---6---6---6---6---6--|
D|-------------------------------|-------------------------------|
A|-------------------------------|-------------------------------|
E|-------------------------------|-------------------------------|





e|5---5-- 5---5-- --5-5-- 5---5--|
B|2---2---2---3-----3-3---2---2--|
G|2---2---2---2-----2-2---2---2--|
D|2---2---2---4-----4-4---2---2--|
A|0---0---0---0-----0-0---0---0--|
E|-------------------------------|
  late. 
e|2------ 2---4-- ----4-- 5\4/5--|
B|4-------4---5-------6---7\6/7--|
G|4-------4---6-------7---8\7/8--|
D|-------------------------------|
A|-------------------------------|
E|-------------------------------|           



         

e|2---2-2 2---2-- 2---2-- 2-2-2--|2-2-2-- 2-2-2--|
B|3---3-3-3---3---3---3---3-3-3--|2-2-2---2-2-2--|
G|2---2-2-2---2---2---2---2-2-2--|2-2-2---2-2-2--|
D|0---0-0-0---0---0---0---0-0-0--|4-4-4---4-4-4--|
A|-------------------------------|2H4-----4-4-4--|
E|-------------------------------|--------2-2-2--|
  Late        today   when it becomes         to..    
e|4---4-- 4---4-- 4---4-- 4---4--|4---4-- 4---4--|
B|5---5---5---5---5---5---5---5--|4---4---4---4--|
G|4---4---4---4---4---4---4---4--|4---4---4---4--|
D|-------------------------------|---------------|
A|-------------------------------|---------------|
E|-------------------------------|---------------|





e|2---2-2 2-2-2-- 2---2-- 2-2-2--|3---3-- 5-5-5-- 5---5-- 5---5--|
B|3---3-3-3-3-3---3---3---3-3-3--|3---3---5-5-5---7---7---7---7--|
G|4---4-4-4-4-4---4---4---4-4-4--|4---4---6-6-6---7---7---7---7--|
D|4---4-4-4-4-4---4---4---4-4-4--|5---5---7-7-7---7---7---5---5--|
A|2-------2-------2-------0------|5-------7-------5-----------7--|
E|--------2----------------------|3-------5----------------------|
  morrow.     I              will leave to go away.      
e|4---4-- 4---4-- 4---4-- 4---4--|7---7-- 7-7---- 7------ 5------|
B|5---5---5---5---5---5---5---5--|7---7---7-7-----9-------5------|
G|6---6---6---6---6---6---4---4--|9---8---6-8-----9-------6------|
D|-------------------------------|-------------------------------|
A|-------------------------------|-------------------------------|
E|-------------------------------|-------------------------------|





e|------- ------- ------- -------|------- ------- ------- -------|
B|----------------5-------2------|----------------5-------2------|
G|------------2---0-------0------|------------2---0-------0------|
D|----2-----------5-------2------|----2-----------5-------2------|
A|0-------4----------------------|0-------4----------------------|
E|-------------------------------|-------------------------------|
  Goodbye,                        Goodbye,
                  Goodbye,                        Goodbye,
e|------- ------- ------- -------|------- ------- ------- -------|
B|7------------------------------|-------------------------------|
G|8------------------------------|-------------------------------|
D|9------------------------------|-------------------------------|
A|-------------------------------|-------------------------------|
E|-------------------------------|-------------------------------|





e|------- ------- ------- -------|------- ------- ------- -------|
B|-------------------------------|-------------------------------|
G|----------------2-----------2--|--------2----------------------|
D|--------1-----------4----------|4-----------4---------------1--|
A|2------------------------------|--------------------2---4------|
E|-------------------------------|-------------------------------| 

e|------- ------- ------- -------|------- ------- ------- -------|
B|----------------5---2-------5--|2-------5---2------------------|
G|------------2---0---0-------0--|0-------0---0------------------|
D|----2-----------5---2-------5--|2-------5---2------------------|
A|0-------4----------------------|--------------------0---2---4--|
E|-------------------------------|-------------------------------|
  Goodbye,        Goodbye,    my  love    Goodbye
                  Goodbye,    my  love    Goodbye



e|2---2-2 2-2-2-- 2---2-- 2-2-2--|2---2-- 2-2-2--|
B|3---3-3-3-3-3---3---3---3-3-3--|2---2---2-2-2--|
G|2---2-2-2-2-2---2---2---2-2-2--|2---2---2-2-2--|
D|0---0-0-0-0-0---0---0---0-0-0--|4---4---4-4-4--|
A|-------------------------------|2H4-----4-4-4--|
E|-------------------------------|--------2-2-2--|
  Songs       that lingered on my lips        ex...  
e|4---4-- 4---4-- 4---4-- 4---4--|4---4-- 4---4--|
B|5---5---5---5---5---5---5---5--|4---4---4---4--|
G|4---4---4---4---4---4---4---4--|4---4---4---4--|
D|-------------------------------|---------------|
A|-------------------------------|---------------|
E|-------------------------------|---------------|





e|2---2-2 2---2-- 2---2-2 2-2-2--|3---3-- --3-3-- 7---7-7 7-7----|
B|3---3-3-3---3---3---3-3-3-3-3--|3---3-----3-3---8---8-8-8-8----|
G|4---4-4-4---4---4---4-4-4-4-4--|4---4-----4-4---9---9-9-9-9----|
D|4---4-4-4---4---4---4-4-4-4-4--|5---5-----5-5---9---9-9-9-9----|
A|2-------2-------2-------0------|5---------5-5---7-------7------|
E|--------2----------------------|3-----------------------7------|
  cite    me  now             and linger          on      my  
e|4---4-- 4---4-- 4---4-- 4---4--|5---5-- 5------ 5---5-- 5---5--|
B|5---5---5---5---5---5---5---5--|5---5---5---5---7---7---7---7--|
G|6---6---6---6---6---6---4---4--|6---6---6---6---6---6---6---6--|
D|-------------------------------|------------7------------------|
A|-------------------------------|-------------------------------|
E|-------------------------------|-------------------------------|





e|5---5-- 5---5-- --5-5-- 5---5--|
B|2---2---2---3-----3-3---2---2--|
G|2---2---2---2-----2-2---2---2--|
D|2---2---2---4-----4-4---2---2--|
A|0---0---0---0-----0-0---0---0--|
E|-------------------------------|
  mind.
e|2------ 2---4-- ----4-- 5\4/5--|
B|4-------4---5-------6---7\6/7--|
G|4-------4---6-------7---8\7/8--|
D|-------------------------------|
A|-------------------------------|
E|-------------------------------|           



         

e|2---2-2 --2-2-- 2---2-2 --2-2--|2---2-2 2-2-2--|
B|3---3-3---3-3---3---3-3---3-3--|2---2-2-2-2-2--|
G|2---2-2---2-2---2---2-2---2-2--|2---2-2-2-2-2--|
D|0---0-0---0-0---0---0-0---0-0--|4---4-4-4-4-4--|
A|-------------------------------|2H4-----4-4-4--|
E|-------------------------------|--------2------|
  Leave      your flowers at  my  door        I'll
e|4---4-- 4---4-- 4---4-- 4---4--|4---4-- 4---4--|
B|5---5---5---5---5---5---5---5--|4---4---4---4--|
G|4---4---4---4---4---4---4---4--|4---4---4---4--|
D|-------------------------------|---------------|
A|-------------------------------|---------------|
E|-------------------------------|---------------|





e|2---2-2 2-2-2-- 2---2-- 2------|3---3-3 5-5-5-- 5---5-- 5---5--|
B|3---3-3-3-3-3---3---3---3------|3---3-3-5-5-5---7---7---7---7--|
G|4---4-4-4-4-4---4---4---4------|4---4-4-6-6-6---7---7---7---7--|
D|4---4-4-4-4-4---4---4---4------|5---5-5-7-7-7---7---7---5---5--|
A|2---------------2-------0------|5-------7-------5-----------7--|
E|--------2----------------------|3-------5----------------------|
  leave   them for            the one who waits behind.       
e|4---4-- 4---4-- 4---4-- 4---4--|7---7-- 7-7---- 7------ 5------|
B|5---5---5---5---5---5---5---5--|7---7---7-7-----9-------5------|
G|6---6---6---6---6---6---4---4--|9---8---6-8-----9-------6------|
D|-------------------------------|-------------------------------|
A|-------------------------------|-------------------------------|
E|-------------------------------|-------------------------------|





e|------- ------- ------- -------|------- ------- ------- -------|
B|----------------5-------2------|----------------5-------2------|
G|------------2---0-------0------|------------2---0-------0------|
D|----2-----------5-------2------|----2-----------5-------2------|
A|0-------4----------------------|0-------4----------------------|
E|-------------------------------|-------------------------------|
  Goodbye,                        Goodbye,
                  Goodbye,                        Goodbye,
e|------- ------- ------- -------|------- ------- ------- -------|
B|7------------------------------|-------------------------------|
G|8------------------------------|-------------------------------|
D|9------------------------------|-------------------------------|
A|-------------------------------|-------------------------------|
E|-------------------------------|-------------------------------|





e|------- ------- ------- -------|------- ------- ------- -------|
B|-------------------------------|-------------------------------|
G|----------------2-----------2--|--------2----------------------|
D|--------1-----------4----------|4-----------4---------------1--|
A|2------------------------------|--------------------2---4------|
E|-------------------------------|-------------------------------| 

e|------- ------- ------- -------|------- ------- ------- -------|
B|----------------5---2-------5--|2-------5---2------------------|
G|------------2---0---0-------0--|0-------0---0------------------|
D|----2-----------5---2-------5--|2-------5---2------------------|
A|0-------4----------------------|--------------------0---2---4--|
E|-------------------------------|-------------------------------|
  Goodbye,        Goodbye,    my  love    Goodbye
                  Goodbye,    my  love    Goodbye



e|2---2-- 2-2-2-- 2---2-- 2-2-2--|2---2-- 2-2-2--|
B|3---3---3-3-3---3---3---3-3-3--|2---2---2-2-2--|
G|2---2---2-2-2---2---2---2-2-2--|2---2---2-2-2--|
D|0---0---0-0-0---0---0---0-0-0--|4---4---4-4-4--|
A|-------------------------------|2H4-----4-4-4--|
E|-------------------------------|--------2-2-2--|
  Dooooooooo  doo doo doo doodoodoooooooooo doooo  
e|4---4-- 4---4-- 4---4-- 4---4--|4---4-- 4---4--|
B|5---5---5---5---5---5---5---5--|4---4---4---4--|
G|4---4---4---4---4---4---4---4--|4---4---4---4--|
D|-------------------------------|---------------|
A|-------------------------------|---------------|
E|-------------------------------|---------------|

e|------- ------- ------- --7---7|------- 7/9----|
B|--------------------9---9------|---------------|
G|------------9---9--------------|---------------|
D|9------------------------------|---------------|
A|-------------------------------|---------------|
E|-------------------------------|---------------|





e|2---2-- 2-2-2-- 2---2-- 2-2-2--|3---3-- 3-3-3-- 7---7-- 7-7-7--|
B|3---3---3-3-3---3---3---3-3-3--|3---3---3-3-3---8---8---8-8-8--|
G|4---4---4-4-4---4---4---4-4-4--|4---4---4-4-4---9---9---9-9-9--|
D|4---4---4-4-4---4---4---4-4-4--|5---5---5-5-5---9---9---9-9-9--|
A|2---------------2-------0------|5-------5-------7-------9------|
E|--------2----------------------|3-----------------------7------|
  doooooo doo dooooooooooo    doo dooooo  dooooo  dooooo  dooooo     
e|4---4-- 4---4-- 4---4-- 4---4--|5---5-- 5---5-- 5---5-- 5---5--|
B|5---5---5---5---5---5---5---5--|5---5---5---5---7---7---7---7--|
G|6---6---6---6---6---6---4---4--|6---6---6---6---6---6---6---6--|
D|-------------------------------|-------------------------------|
A|-------------------------------|-------------------------------|
E|-------------------------------|-------------------------------|

e|------- ------- ------- -------|------- ------- ------- -------|
B|9--\--------9---------------7--|-------------------------------|
G|------6------------------------|9---------------6-----/-9------|
D|-------------------------------|--------7----------------------|
A|-------------------------------|-------------------------------|
E|-------------------------------|-------------------------------|





e|5---5-- 5---5-- --5-5-- 5---5--|
B|2---2---2---3-----3-3---2---2--|
G|2---2---2---2-----2-2---2---2--|
D|2---2---2---4-----4-4---2---2--|
A|0---0---0---0-----0-0---0---0--|
E|-------------------------------|
  dooooooooooooooooooooooooooo
e|2------ 2---4-- ----4-- 5\4/5--|
B|4-------4---5-------6---7\6/7--|
G|4-------4---6-------7---8\7/8--|
D|-------------------------------|
A|-------------------------------|
E|-------------------------------|           

e|------- ------- ------- -------|
B|-------------------------------|
G|6\4----------------------------|
D|-------------------------------|
A|-------------------------------|
E|-------------------------------|



         

e|2---2-2 2---2-- 2---2-- 2-2-2--|2-2-2-- 2-2-2--|
B|3---3-3-3---3---3---3---3-3-3--|2-2-2---2-2-2--|
G|2---2-2-2---2---2---2---2-2-2--|2-2-2---2-2-2--|
D|0---0-0-0---0---0---0---0-0-0--|4-4-4---4-4-4--|
A|-------------------------------|2H4-----4-4-4--|
E|-------------------------------|--------2-2-2--|
  Dooooooooo  doo doo doo doodoodoooooooooo doooo      
e|4---4-- 4---4-- 4---4-- 4---4--|4---4-- 4---4--|
B|5---5---5---5---5---5---5---5--|4---4---4---4--|
G|4---4---4---4---4---4---4---4--|4---4---4---4--|
D|-------------------------------|---------------|
A|-------------------------------|---------------|
E|-------------------------------|---------------|

e|------- ------- ------- --7---7|------- --7/9--|
B|--------------------9---9------|---------------|
G|------------9---9--------------|---------------|
D|9------------------------------|---------------|
A|-------------------------------|---------------|
E|-------------------------------|---------------|

e|------- ------- ----7-- 7-11-11|------- -11/14-|
B|------------9---9--------------|---------------|
G|9------------------------------|---------------|
D|-------------------------------|---------------|
A|-------------------------------|---------------|
E|-------------------------------|---------------|





e|2---2-2 2-2-2-- 2---2-- 2-2-2--|3---3-- 5-5-5-- 5---5-- 5---5--|
B|3---3-3-3-3-3---3---3---3-3-3--|3---3---5-5-5---7---7---7---7--|
G|4---4-4-4-4-4---4---4---4-4-4--|4---4---6-6-6---7---7---7---7--|
D|4---4-4-4-4-4---4---4---4-4-4--|5---5---7-7-7---7---7---5---5--|
A|2-------2-------2-------0------|5-------7-------5-----------7--|
E|--------2----------------------|3-------5----------------------|
  doooooo doo dooooooooooooo  doo doo doo dodoodoooooooooooooooo       
e|4---4-- 4---4-- 4---4-- 4---4--|5---5-- 5---5-- 5---5-- 5---5--|
B|5---5---5---5---5---5---5---5--|5---5---5---5---7---7---7---7--|
G|6---6---6---6---6---6---4---4--|6---6---6---6---6---6---6---6--|
D|-------------------------------|-------------------------------|
A|-------------------------------|-------------------------------|
E|-------------------------------|-------------------------------|

e|------- ------- ------- -------|------- ------- ------- -------|
B|9--\--------9---------------7--|-------------------------------|
G|------6------------------------|9---8---6-8---9----------------|
D|-------------------------------|-------------------------------|
A|-------------------------------|-------------------------------|
E|-------------------------------|-------------------------------|

e|12-\--- ----9-- ------- ----7--|9---7-- 5-9---7 ------- -------|
B|------9------------------------|-------------------------------|
G|-------------------------------|-------------------------------|
D|-------------------------------|-------------------------------|
A|-------------------------------|-------------------------------|
E|-------------------------------|-------------------------------|





e|----7-\ 5------ 5-\-4-- ----2--|----7-\ 5------ 5-\-4-- ----2--|
B|-------------------------------|-------------------------------|
G|8-----------6-----------4------|8-----------6-----------4------|
D|-------------------------------|-------------------------------|
A|-------------------------------|-------------------------------|
E|-------------------------------|-------------------------------|   

e|------- ------- ------- -------|------- ------- ------- -------|
B|------------0------------------|------------0------------------|
G|----------------2--------------|----------------2--------------|
D|--------1---------------4------|--------1---------------4------|
A|2------------------------------|2------------------------------|
E|-------------------------------|-------------------------------| 

e|------- ------- ------- -------|------- ------- ------- -------|
B|----------------5-------2------|----------------5-------2------|
G|------------2---0-------0------|------------2---0-------0------|
D|----2-----------5-------2------|----2-----------5-------2------|
A|0-------4----------------------|0-------4----------------------|
E|-------------------------------|-------------------------------|      
  Goodbye,                        Goodbye,
                  Goodbye,                        Goodbye, 



e|----5-- 5------ 5---4-- ----4--|2------ 2------ ------- -------|
B|-------------------------------|------------4-------2---0------|
G|8-----------6-----------4------|----2--------------------------|
D|-------------------------------|-------------------------------|
A|-------------------------------|-------------------------------|
E|-------------------------------|-------------------------------|

e|----5-- 5------ 5---4-- ----4--|2------ 2------ ----0-- 2---2--|
B|-------------------------------|------------4-------0---0---0--|
G|8-----------6-----------4------|----2---------------1---2---2--|
D|-------------------------------|--------------------2---1---1--|
A|-------------------------------|--------------------2---2---2--|
E|-------------------------------|-------------------------------|  

e|------- ------- ------- -------|------- ------- ------- -------|
B|----------------5---2-------5--|2-------5---2------------------|
G|------------2---0---0-------0--|0-------0---0------------------|
D|----2-----------5---2-------5--|2-------5---2------------------|
A|0-------4----------------------|--------------------0---2---4--|
E|-------------------------------|-------------------------------|
  Goodbye,        Goodbye,    my  love    Goodbye
                  Goodbye,    my  love    Goodbye






e|2---2-- 2-2-2-- 2---2-2 2-2-2--|2---2-2 2-2-2--|
B|3---3---3-3-3---3---3-3-3-3-3--|2---2-2-2-2-2--|
G|2---2---2-2-2---2---2-2-2-2-2--|2---2-2-2-2-2--|
D|0---0---0-0-0---0---0-0-0-0-0--|4---4-4-4-4-4--|
A|-------------------------------|2H4-----4-4-4--|
E|-------------------------------|--------2-2-2--|                       
  Far         away    my  lover sings         a   
e|0------ ------- ------- -------|------- -------|
B|0------------------------------|---------------|
G|1------------------------------|---------------|
D|2------------------------------|---------------|
A|2------------------------------|---------------|
E|-------------------------------|---------------|
    
e|4------ ------- ------- -------|4------ -------|
B|5------------------------------|4--------------|
G|4------------------------------|4--------------|
D|-------------------------------|---------------|
A|-------------------------------|---------------|
E|-------------------------------|---------------|





e|2---2-2 2-2-2-- 2---2-- 2------|3---3-3 3-3---- 7---7-- 7-7-7--|
B|3---3-3-3-3-3---3---3---3------|3---3-3-3-3-----8---8---8-8-8--|
G|4---4-4-4-4-4---4---4---4------|4---4-4-4-4-----9---9---9-9-9--|
D|4---4-4-4-4-4---4---4---4------|5---5-5-5-5-----9---9---9-9-9--|
A|2---------------2-------0------|5-------5-------7-------9------|
E|--------2----------------------|3-----------------------7------|
  lonely      song            and calls   me      to      his 
e|4------ ------- ------- 4------|5------ ------- ------- -------|
B|5-----------------------5------|5------------------------------|
G|6-----------------------4------|6------------------------------|
D|-------------------------------|-------------------------------|
A|-------------------------------|-------------------------------|
E|-------------------------------|-------------------------------|





e|5---5-- 5---5-- --5-5-- 5---5--|
B|2---2---2---3-----3-3---2---2--|
G|2---2---2---2-----2-2---2---2--|
D|2---2---2---4-----4-4---2---2--|
A|0---0---0---0-----0-0---0---0--|
E|-------------------------------|
  side.
e|2------ 2---4-- ----4-- 5\4/5--|
B|4-------4---5-------6---7\6/7--|
G|4-------4---6-------7---8\7/8--|
D|-------------------------------|
A|-------------------------------|
E|-------------------------------|           



         

e|2---2-2 2-2-2-- 2---2-- 2---2--|2-2-2-- 2-2-2--|
B|3---3-3-3-3-3---3---3---3---3--|2-2-2---2-2-2--|
G|2---2-2-2-2-2---2---2---2---2--|2-2-2---2-2-2--|
D|0---0-0-0-0-0---0---0---0---0--|4-4-4---4-4-4--|
A|-------------------------------|2H4-----4-4-4--|
E|-------------------------------|--------2-2-2--|
  When        the song of lonely  love        in..
e|4---4-- 4---4-- 4---4-- 4---4--|4---4-- 4---4--|
B|5---5---5---5---5---5---5---5--|4---4---4---4--|
G|4---4---4---4---4---4---4---4--|4---4---4---4--|
D|-------------------------------|---------------|
A|-------------------------------|---------------|
E|-------------------------------|---------------|





e|2---2-- 2---2-- 2---2-- 2---2--|3---3-- 5-5-5-- 5---5-- 5---5--|
B|3---3---3---3---3---3---3---3--|3---3---5-5-5---7---7---7---7--|
G|4---4---4---4---4---4---4---4--|4---4---6-6-6---7---7---7---7--|
D|4---4---4---4---4---4---4---4--|5---5---7-7-7---7---7---5---5--|
A|2-------2-------2-------0------|5-------7-------5-----------7--|
E|--------2----------------------|3-------5----------------------|
 ..vites  me  on              I   must go to his  side.      
e|4---4-- 4---4-- 4---4-- 4---4--|7---7-- 7-7---- 7------ 5------|
B|5---5---5---5---5---5---5---5--|7---7---7-7-----9-------5------|
G|6---6---6---6---6---6---4---4--|9---8---6-8-----9-------6------|
D|-------------------------------|-------------------------------|
A|-------------------------------|-------------------------------|
E|-------------------------------|-------------------------------|





e|----7-\ 5------ 5-\-4-- ----2--|----7-\ 5------ 5-\-4-- ----2--|
B|-------------------------------|-------------------------------|
G|8-----------6-----------4------|8-----------6-----------4------|
D|-------------------------------|-------------------------------|
A|-------------------------------|-------------------------------|
E|-------------------------------|-------------------------------|

e|------- ------- ------- -------|------- ------- ------- -------|
B|----------------5-------2------|----------------5-------2------|
G|------------2---0-------0------|------------2---0-------0------|
D|----2-----------5-------2------|----2-----------5-------2------|
A|0-------4----------------------|0-------4----------------------|
E|-------------------------------|-------------------------------|
  Goodbye,                        Goodbye,
                  Goodbye,                        Goodbye, 

                                              (.

e|----5-- 5------ 5---4-- ----4--|2------ 2---0-- ------- -------|
B|-------------------------------|------------0------------------|
G|8-----------6-----------4------|----2-------1------------------|
D|-------------------------------|-------------------------------|
A|-------------------------------|-------------------------------|
E|-------------------------------|-------------------------------|

e|------- ------- ------- -------|------- ------- ------- -------|
B|----------------5---2-------5--|2-------5---7------------------|
G|------------2---0---0-------0--|0-------0---7------------------|
D|----2-----------5---2-------5--|2-------5---7------------------|
A|0-------4----------------------|-------------------------------|
E|-------------------------------|-------------------------------|
  Goodbye,        Goodbye,    my  love    Goodbye
                  Goodbye,    my  love    Goodbye








        B  Bend
        R  Release
        /  Slide up
        \  Slide down
        H  Hammer-on
        P  Pull-off
        ~  Vibrato
        +  Harmonic
        x  Mute note
        .  Play note like a dot in standard notation
        ^  Ties two notes together
        (. Pause



            
            
Suggest correction
Creating personal tab
Creating personal tab
You can edit any tab online and save it as your Personal.

You can edit, replace or remove any tab part or add personal notes – all changes will be seen only by you.

Personal tabs can be accessed anytime from any device, even offline.
Learn more »
Give kudos to tab author, rate the tab!
1 2 3 4 5
comments
print report bad tab
3 comments total.
0 reply
Stobeatles 32 Nov 27, 2008 04:09 AM

if you watch her music video on youtube you;ll see capo is on fourth not second :D

0 reply
PJVILL 8,472 Nov 27, 2008 06:04 AM

Why don't you listen to the original recording?

0 reply
BJ59 36 Dec 20, 2013 04:50 PM

This is an excellent transcription. Very well done, and very much appreciated -- especially the dual guitar parts. Thanks for another fine posting.

guest
You may want to rate the tab now too:
select rating
Wanna post a correction for this tab? Suggest correction