Oops, an error
Loading. Please wait.

Karuyag Ko La chords

553 views 6 this week
no commentswrite comment
1 2 3 4 5
3 more votes to show rating
add to favorites
×
Save as Personal and add changes to this tab that will be seen only by you. Learn more ›
×
You can save this tab as Personal to edit and correct it or add notes. All changes will be seen only by you. Learn more »
launch autoscroll
font size
0
reset
transpose
0
reset
simplify chords
display chords
guitar tuner
edit
Autoscroll
slow
fast
+/-
esc
set tempo
stop
Strumming
There is no strumming pattern for this song yet. and get +5 IQ
Title: Karuyag Ko La
Artist: Mary Jo Boco and Jemimah Mhai Candole
Video: https://www.facebook.com/OPMmemesPH/videos/928951310531509/
Tabbed by: Erwin Villejo

Tuning: standard
Capo: 5th fret

Shape:   C    E7   F    Fm   Em
    a |--0----0----1----1----0--|
    E |--1----0----1----1----0--|
    C#|--0----1----2----1----0--|
    G |--2----0----3----3----2--|
    D |--3----2----3----3----2--|
    A |--x----0----1----1----0--|

Strumming pattern: 1 & 2 & 3 & 4
    Hook:          D
    Verse/Refrain: D   D U   U D
    Last verse:    D     U   U D
    Last refrain:  pluck downard (bass note + 3 strings down)

[Hook]

C            E7     F         Fm
  Karuyag ko la makalimtan ka
C            E7       F        Fm
  Karuyag ko la makapahuway na


[Verse]

C                 E7         F          Fm
  Kay ini'n kasingkasing, ginkakapoy na
C               E7            F         Fm
  Ini nga kasingkasing nagbuburublag na


[Refrain]

C            E7         F
  Makuri kon hirayo-o-o-o
            Fm       C
Bis ano'n natatabo ha aton
  E7          F          Fm
Nakakalimtan, nasusumhan


[Refrain]

C            E7         F
  Makuri kon hirayo-o-o-o
           Fm       C
Waray ak mahihimo ha aton
  E7         F            Fm
Nagagasgas liwat an tapod


[Verse]

C              E7      
  Ini nga paghigugma
              F
Nga imo la ginkarag
       Fm                C
Pag ginhatag ko nala ha iba
           E7      
Puta hin kamalas
           F
Mabalik an oras
  Fm         Em
Waray nala unta
  Em          F
Waray nala unta
Fm
Kay


[Refrain]

C            E7         F
  Makuri kon hirayo-o-o-o
            Fm       C
Bis ano'n natatabo ha aton
  E7          F          Fm
Nakakalimtan, nasusumhan


[Refrain]

C            E7         F
  Makuri kon hirayo-o-o-o
           Fm       C
Waray ak nahihimo ha aton
  E7         F            Fm
Nagagasgas liwat an tapod


[Instrumental]

     C                E7               F                Fm
a |--------3-------|--------3-------|--------1-------|--------1-------|
E |--1-1-1-----1-1-|--0-0-0-----0-0-|--1-1-1-----1-1-|--1-1-1-----5---|
C#|--0---------0-0-|--1---------1-1-|--2---------2-2-|--1-----------1-|
G |--2---------2-2-|--0---------0-0-|--3---------3-3-|--3-----------3-|
D |--3---------3-3-|--2---------2-2-|--3---------3-3-|--3-----------3-|
A |----------------|--0---------0-0-|--1---------1-1-|--1-----------1-|
     D   D U   U D    D   D U   U D    D   D U   U D    D   D U   U D

     C                E7               F                Fm
a |--------3-------|--------3-------|--------1-------|--5-----3---1---|
E |--1-1-1-----1-1-|--0-0-0-----0-0-|--1-1-1-----1-1-|--1-------------|
C#|--0---------0-0-|--1---------1-1-|--2---------2-2-|--1-------------|
G |--2---------2-2-|--0---------0-0-|--3---------3-3-|--3-------------|
D |--3---------3-3-|--2---------2-2-|--3---------3-3-|--3-------------|
A |----------------|--0---------0-0-|--1---------1-1-|--1-------------|
     D   D U   U D    D   D U   U D    D   D U   U D    D     U   U


[Hook]

C            E7      F       Fm
  Karuyag ko la na makita ka
C            E7     F       Fm
  Karuyag ko la makaupod ka


[Verse]

C                   E7        F           Fm
  Kay ini nga kasingkasing ginmimingaw ka
C               E7        F           Fm
  Ini nga kasingkasing ginbibiling ka


[Refrain]

C           E7         F
  Sagdi kon hirayo-o-o-o
             Fm        C
Bis ano pa't matabo ha aton
   E7          F           Fm    C
Di kakalimtan, di susumhan
Suggest correction
Creating personal tab
Creating personal tab
You can edit any tab online and save it as your Personal.

You can edit, replace or remove any tab part or add personal notes – all changes will be seen only by you.

Personal tabs can be accessed anytime from any device, even offline.
Learn more »
Give kudos to tab author, rate the tab!
1 2 3 4 5
comments
print report bad tab
guest
You may want to rate the tab now too:
select rating
Wanna post a correction for this tab? Suggest correction