Oops, an error
Loading. Please wait.

My Guy bass

2,121 views 9 this week
no commentswrite comment
1 2 3 4 5
1 last vote to show rating
add to favorites
×
Save as Personal and add changes to this tab that will be seen only by you. Learn more ›
×
You can save this tab as Personal to edit and correct it or add notes. All changes will be seen only by you. Learn more »
launch autoscroll
font size
0
reset
guitar tuner
edit
Autoscroll
slow
fast
+/-
esc
set tempo
stop
Author
Difficulty
My Guy
Written by Smokey Robinson, this song by Mary Wells reached
Number 5 in 1964 here in the UK. Bass performance by the legend
James Jamerson. Tab by bass50611.
A simplified bass line and not exactly as the original
especially in the outro but it does fit and makes it a very
melodic song to play along to.  As always with Jamerson listen
for the syncopation.  Any comments bass254@btinternet.com

Intro:
G|--------------------------------------------------|
D|--5---3-5-3-5-3---5-3--5-3----5---3-5-3-5-3-------|
A|-1---------------1----1------1----------------3-5-|
E|--------------------------------------------------|

Verse:
G|----------------------------------------------------------------------|
D|----------------------------------------------------------------------|
A|-1-----0-1------0-1-----0-1------0-1-----0-1------0---5------5----5-4-|
E|----1-------11-------1-------11-------1-------11--------5-55----5-----|

Chorus:
G|---------------------------------------3---------------------------------|
D|---5-33------5-33------5-33---------5-3----------------3-3---------------|
A|-3-----5---3-----5---3-----5---3---5------1-11-----3-3-----1-1-------3-5-|
E|-----------------------------------------------3-3-------------1-1-------|

Repeat Verse;

Repeat Chorus;

Bridge:                                                                  .
G|-------------------------------------------------------------------------|
D|---5-3---------5-3---------5-3---------3-0-3---------------------------3-|
A|-3-----5-2---3-----5-2---3-----5-2---1------1------5-5-----5-5---3-33-3--|
E|-----------------------------------------------3-3-----3-3---------------|

Repeat Verse:

Repeat Chorus:

Repeat Intro:

Repeat Verse:

Repeat Chorus:

Outro:                 (REPEAT TO FADE)
G|-------------------------------------|
D|----------------3-33-----------------|
A|-1-11------3-33------1-11--------3-5-|
E|------3-33----------------1-11-------|
Suggest correction
Creating personal tab
Creating personal tab
You can edit any tab online and save it as your Personal.

You can edit, replace or remove any tab part or add personal notes – all changes will be seen only by you.

Personal tabs can be accessed anytime from any device, even offline.
Learn more »
Give kudos to tab author, rate the tab!
1 2 3 4 5
comments
print report bad tab
guest
You may want to rate the tab now too:
select rating
Wanna post a correction for this tab? Suggest correction