Oops, an error
Loading. Please wait.

Change The World tab

version 1
version 1

Whole song

Interactive

6,976 views 3 this week
1 commentread comment
1 2 3 4 5
x 3
add to favorites
×
Save as Personal and add changes to this tab that will be seen only by you. Learn more ›
×
You can save this tab as Personal to edit and correct it or add notes. All changes will be seen only by you. Learn more »
launch autoscroll
font size
0
reset
how to read this tab
guitar tuner
edit
Autoscroll
slow
fast
+/-
esc
set tempo
stop
Author
Change the World - Masaaki Kishibe - Eric Clapton Cover
BPM = 95
Standard Tuning

     E    E  E  E  E  E  E  E     Q    E  E  E  E  E  E
E||----------------------------|-------x-----------x-----|
B||----------------------3--0--|-------0-----------x-----|
G||-----0g1--------2-----2--0--|-------0--0-----0--0-----|
D||----------x--0-----0--------|-------------0-----0--0--|
A||----------x-----------------|-------------------------|
E||--0-------------2-----------|--3----------------------|


  E  E  E  E  E  E  E    E     E  E  E  E  Q    E  E
----------------------------|-----0-------------------|
-----0--------------0-------|-----0-------------------|
-----0--------2-----0--0g1--|----------------------1--|
--------x--0-----0-------0--|--------x--0-------x--2--|
--------x-------------------|--------x-----2----x-----|
--3-----------2-------------|--0----------------------|


  E  E  E  E  E  E  E  E     Q    E  E  E  E  E  E
-----0--------------------|-------x-----------x-----|
-----0--------------3--0--|-------x-----------0-----|
--------------2-----2--0--|-------0--0-----0--0-----|
--------x--0-----0--------|-------0-----0--------0--|
--------x-----------------|-------------------------|
--0-----------2-----------|--3----------------------|


  E  E  E  E  E  E  S  S  E     H        E  E  S S S S
-----------------------------|--------------2----------|
-----0-----------------------|-----------2-------------|
-----0--------2--0-----------|-----------2-------------|
--------x--0--------2p-0h-2--|--2--------2-------------|
--------x--------------------|--2--------2-----2-0-----|
--3--3--------2--------------|---------------------3-4-|


  E    E  E  E  E  E  E    E     E  E  E  E  Q    E  E
------------------------------|-----0-------------------|
----------------------0-------|-----0-------------------|
-----0g1--------2--------0g1--|----------------------1--|
----------x--0-----0----------|--------x--0-------x--2--|
----------x-----4-------------|--------x-----2----x-----|
--0---------------------------|--0----------------------|


                                        >
  E  E  E  E  E  E  E    E     E  E  E  E    E  E    E  E
-----0----------------------|-----0------------------------|
-----0--------------0-------|-----0-------------3----------|
--------------2--------0g1--|--------------2g4-----4g2--0--|
--------x--0-----0-------0--|--------x---------------------|
--------x-----4-------------|--------x---------------------|
--0-------------------------|--0--------0------------------|


  E    E  E  E  E  E  E    E     E  E  E  E  Q    E  E
------------------------------|-----0-------------------|
----------------------0-------|-----0-------------------|
-----0g1--------2--------0g1--|----------------------1--|
----------x--0-----0-------0--|--------x--0-------x--2--|
----------x-----4-------------|--------x-----2----x-----|
--0---------------------------|--0----------------------|


  E  E  E  E  E  E  E    E     E  E  E  E  E  E  E  E
-----0----------------------|-----0--------------------|
-----0----------------------|-----0--------------------|
--------------2-----4--0g1--|--------------1-----3-----|
--------x--0-----0----------|--------x--0-----0-----0--|
--------x-----4-------------|--------x-----------------|
--0-------------------------|--0-----------2-----4-----|


                               v
  E  E  E  E  Q    E  E     E  E  E  E  E  E  E  E
-------------------------|-----------------x--------|
-----2--------3-------5--|--L--5-----------5-----5--|
-----1----------------4--|--L--4-----4-----4--4-----|
-----2--x--0--4----x--5--|--L--5--x-----5-----------|
--0-----x-----0----x--0--|--L-----x-----------------|
-------------------------|--------------------------|


                                              >
  E    E  E  E  Q    E  E     E    E  E  E    E  E  E  E
---------------------------|-----0g3----------------------|
-----3g5--5-----3----5--2--|-------2----------------------|
-----2g4--4-----4----4--2--|------------------------------|
---------------------------|----------x----------2--------|
--0----------0-------------|--0-------x--2--2g4-----4--2--|
---------------------------|------------------------------|


  E    E  E  E  E  E  E    E     E  E  E  E  Q    E  E
------------------------------|-----0-------------------|
----------------------0-------|-----0-------------------|
-----0g1--------2--------0g1--|----------------------1--|
----------x--0-----0-------0--|--------x--0-------x--2--|
----------x-----4-------------|--------x-----2----x-----|
--0---------------------------|--0----------------------|


  E  E  E  E  E  E  E    E     E  E  E  E  E  E    E  E
-----0----------------------|-----------4----------------|
-----0--------------0-------|-----------4-------------0--|
--------------2-------------|--------5-------------------|
--------x--0-----0-----4g6--|-----6--------------3g6-----|
--------x-----4-------------|----------------------------|
--0-------------------------|--4-----------4-------------|


  E  E  E  E  Q    E  E     E  E  E    E  E  E  E  E
--------0----------4-----|-------------------4--------|
-----2--------7-------5--|--------4--4g5-----5--------|
-----2-----2-------------|--------5----4--------------|
-------------------------|-----6----------------x--0--|
--0----------------------|--4-------------4-----x-----|
--------------4----------|----------------------------|


  E  E  E  E  E  E  E  E     E   E  E  E  E  E  E  E
-----------0--4-----------|------------4--------------|
-----7--7--------7--5--4--|--4h--5-----5--------------|
-----6--6-----------------|---------------------------|
-----7--7-----------------|---------x--------6--x--0--|
--6-----------------------|---------x-----------x-----|
--------------4-----------|--4------------4-----------|


  E  Q    E  E  E  E  E     E  E  E  E  Q      E  E
----------0--4-----------|---------------------------|
-----7----------7--5--4--|--5-----4-----3----3g5--3--|
-----6-------------------|--6------------------------|
-----7-------------------|--------5-----4------------|
--6----------------------|--4-----3-----2------------|
-------------4-----------|---------------------------|


                                                             Brush
                                                v     v
  E  E  E  E  Q     E  E     E  E  E  E  Q.     E     Q.     Q     Q    E
-----------0--------------|-----0---------------0--|--L--------------------|
--2-----------------------|--0--0---------------0--|--L--------------------|
-----4-----------------0--|-----------3--2------2--|--L-----------------1--|
--------x-----------x-----|--------x--2--2------2--|--L------x-----x-------|
--0-----x-----------x-----|--------x------------0--|--L------x-----x-------|
--------------4~----------|--4--------3--2------2--|--L--------------------|


  E  E  E  E  E  E  E  E     Q    E  E  E  E  E  E
-----0--------------------|-------x-----------x-----|
-----0--------------3--0--|-------0-----------x-----|
--------------2-----2--0--|-------0--0-----0--0-----|
--------x--0-----0--------|-------------0-----0--0--|
--------x-----------------|-------------------------|
--0-----------2-----------|--3----------------------|


  E  E  E  E  E  E  S  S  E     H        E  E  S S S S
-----------------------------|--------------2----------|
-----------------------------|-----------2-------------|
-----4--------2--0-----------|-----------2-------------|
--------x--0--------2p-0h-2--|--2--------2-------------|
--------x--------------------|--2--------2-----2-0-----|
--3--3--------2--------------|---------------------3-4-|


  E    E  E  E  E  E  E    E     E  E  E  E  Q    E  E
------------------------------|-----0-------------------|
----------------------0-------|-----0-------------------|
-----0g1--------2--------0g1--|----------------------1--|
----------x--0-----0----------|--------x--0-------x--2--|
----------x-----4-------------|--------x-----2----x-----|
--0---------------------------|--0----------------------|


  E  E  E  E  E  E  E    E     E  E  E  E   E   E   E  E
-----0----------------------|-----0--------12------12-----|
-----0--------------0-------|-----0--------10------10-----|
--------------2--------0g1--|------------------12---------|
--------x--0-----0----------|--------x-----------------0--|
--------x-----4-------------|--------x--------------------|
--0-------------------------|--0--------0-----------------|


  E    E  E  E  E  E  E    E     E  E  E  E  Q    E  E
------------------------------|-----0-------------------|
----------------------0-------|-----0-------------------|
-----0g1--------2--------0g1--|----------------------1--|
----------x--0-----0-------0--|--------x--0-------x--2--|
----------x-----4-------------|--------x-----2----x-----|
--0---------------------------|--0----------------------|


  E  E  E  E  E  E  E    E     E  E  E  E  E  E  E  E
-----0----------------------|-----0--------------------|
-----0----------------------|-----0--------------------|
--------------2-----4--0g1--|--------------1-----3-----|
--------x--0-----0----------|--------x--0-----0-----0--|
--------x-----4-------------|--------x-----------------|
--0-------------------------|--0-----------2-----4-----|


  E  E  E  E  Q    E  E     E  E  E  E  E  E  E  E
-------------------------|-----5--x-----------x-----|
-----2--------3-------5--|--L--5--x--5--------x-----|
-----1----------------4--|--L-----4--------4--------|
-----2--x--0--4----x--5--|--L-----5-----5--------5--|
--0-----x-----0----x--0--|--L-----------------------|
-------------------------|--------------------------|


                                               >
  E    E  E  E  E  E  E  E     E    E  E  E    E  E  E  E
----------------------------|-----0g3----------------------|
-----3g5--5-----3-----5--2--|-------2----------------------|
-------------0--------------|------------------------------|
-----3g5--------4--5-----2--|----------x----------2--------|
--0-------------0--------0--|--0-------x--2--2g4-----4--2--|
----------------------------|------------------------------|


  E    E  E  E  E  E  E    E     E  E  E  E  Q    E  E
------------------------------|-----0-------------------|
----------------------0-------|-----0-------------------|
-----0g1--------2--------0g1--|----------------------1--|
----------x--0-----0-------0--|--------x--0-------x--2--|
----------x-----4-------------|--------x-----2----x-----|
--0---------------------------|--0----------------------|


  E  E  E  E  E  E  E    E     E  E  E  E  E  E    E  E
-----0----------------------|-----------4----------------|
-----0--------------0-------|-----------4-------------0--|
--------------2-------------|--------5-------------------|
--------x--0-----0-----4g6--|-----6--------------3g6-----|
--------x-----4-------------|----------------------------|
--0-------------------------|--4-----------4-------------|


  E  E  E  E  Q    E  E     E  E  E    E  E  E  E  E
--------0----------4-----|-------------------4--------|
-----2--------7-------5--|--------4--4g5-----5--------|
-----2-----2-------------|--------5----4--------------|
-------------------------|-----6----------------x--0--|
--0----------------------|--4-------------4-----x-----|
--------------4----------|----------------------------|


  E  E  E  E  E  E  E  E     E   E  E  E  E  E  E  E
-----------0--4-----------|------------4--------------|
-----7--7--------7--5--4--|--4h--5-----5--------------|
-----6--6-----------------|---------------------------|
-----7--7-----------------|---------x--------6--x--0--|
--6-----------------------|---------x-----------x-----|
--------------4-----------|--4------------4-----------|


  E  Q    E  E  E  E  E     E  E  E  E  Q      E  E
----------0--4-----------|---------------------------|
-----7----------7--5--4--|--5-----4-----3----3g5--3--|
-----6-------------------|--6------------------------|
-----7-------------------|--------5-----4------------|
--6----------------------|--4-----3-----2------------|
-------------4-----------|---------------------------|


  E  E  E  E  Q     E  E     E  E  E  E  Q    E  E
-----------0--------------|-----0-------------------|
--2-----------------------|--0--0-------------------|
-----4-----------------0--|-----------3--2-------1--|
--------x-----------x-----|--------x--2--2----x-----|
--0-----x-----------x-----|--------x----------x-----|
--------------4~----------|--4--------3--2----------|


                                                                            v
  E  E  E  E  Q      E  E     E  E  E  E  Q     E  E     E  E  E  E  Q.     E
-----0---------------------|-----------0--------------|-----0---------------0--|
-----0-------------3g5--3--|--2-----------------------|--0--0---------------0--|
-----------1---------------|-----4-----------------0--|-----------3--2------2--|
--------x--2---------------|--------x-----------x-----|--------x--2--2------2--|
--------x------------------|--0-----x-----------x-----|--------x------------0--|
--0-----------0------------|--------------4~----------|--4--------3--2------2--|


       Brush
  v                  >
                                     |---3---|
  Q    Q     Q       E   E   E   E   S   S   S  E   E   E
--L---------------|-----10--10--10-------------------------|
--L---------------|-----12--12--12--10h-11p-10-----10------|
--L---------------|----------------------------12------12--|
--L----x-----x----|----------------------------------------|
--L----x-----x----|----------------------------------------|
--L---------------|--0-------------------------------------|


  >                                >
  E  S  S E  S  S E    E  E  E     E    E  E    E  S  S  E  E  E
--------------------------------|---------------------------------|
----------8---------------------|----------3----------------------|
-----7h-9----7h-9-7-------------|-----3g4-----4g2--0h-2p-0--------|
---------------------9g7--5--7--|---------------------------2--0--|
--------------------------------|---------------------------------|
--0-----------------------------|--3------------------------------|


                                     >
  S S E  E  S  S S  S S  S  E  E     E    E  E  E  S   S  E  E  E
----------------------------------|--------------------------------|
----------------------------------|----------8-----8h-10p-8-----8--|
--2-2-------2p-0------------------|-----2g9-----9------------9-----|
------2--0-------2p-0-------------|--------------------------------|
----------------------2p-0h-2-----|--------------------------------|
--0----------------------------3--|--0-----------------------------|


                                             >
                    |---3---|
  E     E   E   E   S   S   S  E   E   E     E   Q       E  E  E    E  E
-----------10--12-------------------------|-----10br----10----------------|
-----6g10----------10h-11p-10-----10------|------8br--------8--8----------|
------------------------------12------12--|-------------------------------|
------------------------------------------|-----------------------9g7--5--|
------------------------------------------|-------------------------------|
--0---------------------------------------|--0----------------------------|


  E  E  E  E  E  E    E  E     E  E  E  E  Q    E  E
-----------4----------------|--------0----------4-----|
-----------4-------------0--|-----2--------7-------5--|
--------5-------------------|-----2-----2-------------|
-----6--------------3g6-----|-------------------------|
----------------------------|--0----------------------|
--4-----------4-------------|--------------4----------|


  E  E  E    E  E  E  E  E     E  E  E  E  E  E  E  E
-------------------4--------|-----------0--4-----------|
--------4--4g5-----5--------|-----7--7--------7--5--4--|
--------5----4--------------|-----6--6-----------------|
-----6----------------x--0--|-----7--7-----------------|
--4-------------4-----x-----|--6-----------------------|
----------------------------|--------------4-----------|


  E   E  E  E  E  E  E  E     E  Q    E  E  E  E  E
------------4--------------|----------0--4-----------|
--4h--5-----5--------------|-----7----------7--5--4--|
---------------------------|-----6-------------------|
---------x--------6--x--0--|-----7-------------------|
---------x-----------x-----|--6----------------------|
--4------------4-----------|-------------4-----------|


  E  E  E  E  Q      E  E     E  E  E  E  Q     E  E
---------------------------|-----------0--------------|
--5-----4-----3----3g5--3--|--2-----------------------|
--6------------------------|-----4-----------------0--|
--------5-----4------------|--------x-----------x-----|
--4-----3-----2------------|--0-----x-----------x-----|
---------------------------|--------------4~----------|


  E  E  E  E  Q    E  E     E  E  E  E  Q      E  E
-----0-------------------|-----0---------------------|
--0--0-------------------|-----0-------------3g5--3--|
-----------3--2-------1--|-----------1---------------|
--------x--2--2----x-----|--------x--2---------------|
--------x----------x-----|--------x------------------|
--4--------3--2----------|--0-----------0------------|


                                                             Brush
                                                v     v
  E  E  E  E  Q     E  E     E  E  E  E  Q.     E     Q.     Q     Q    E
-----------0--------------|-----0---------------0--|--L--------------------|
--2-----------------------|--0--0---------------0--|--L--------------------|
-----4-----------------0--|-----------3--2------2--|--L-----------------1--|
--------x-----------x-----|--------x--2--2------2--|--L------x-----x-------|
--0-----x-----------x-----|--------x------------0--|--L------x-----x-------|
--------------4~----------|--4--------3--2------2--|--L--------------------|


  E    E  E  E  E  E  E  E     Q    E  E  E  E  E  E
----------------------------|-------x-----------0-----|
----------------------3--0--|-------0-----------0-----|
-----0g1--------2-----2--0--|-------0--0-----0--0-----|
----------x--0-----0--------|-------------0-----0--0--|
----------x-----------------|-------------------------|
--0-------------2-----------|--3----------------------|


  E  E  E  E  E  E  S  S E      Q    Q    E   E  E  E
-----------------------------|-------------------------|
-----0-----------------------|-------------------------|
-----0--------2--0-----------|-------0----1h--2--------|
--------x--0--------2p-0-----|-------------------2--0--|
--------x----------------2~--|--L----------------------|
--3-----------2--------------|-------0-----------------|


                                           ^      ^
  S  S S  S  E  Q.      Q         E  E  E  E.  E  E.  E
-----------------------------|---------------------------||
-----------------------------|-------------8------8---L--||
-----------------------------|----------7--7---7--7---L--||
--2p-0-----------------------|--2g6--6-----6------6---L--||
-------2p-0h-2---------------|-------5-----5------5---L--||
----------------3~------0----|---------------------------||


Duration Legend
---------------
W - whole
H - half
Q - quarter
E - 8th
S - 16th
T - 32nd
X - 64th
. - note dotted
|-n-|  - n-tuplets


Tablature Legend
----------------
L - tied note
x - dead note
g - grace note
(n) - ghost note
> - accentuded note
NH - natural harmonic
AH - artificial harmonic
TH - tapped harmonic
SH - semi harmonic
PH - pitch harmonic
h - hammer on
p - pull off
b - bend
br - bendRelease
pb - preBend
pbr - preBendRelease
brb - bendReleaseBend
\n/ - tremolo bar dip
\n - tremolo bar dive
-/n - tremolo bar Release up
/n\ - tremolo bar inverted dip
/n - tremolo bar return
-\n - tremolo bar Release down
S - shift slide
s - legato slide
/ -  slide into from below or out of upwards
\ -  slide into from above or out of downwards
~ - vibrato
W - wide vibrato
tr - trill
TP - tremolo picking
T - tapping
S - slap
P - pop
< - fade in
^ - brush up
v - brush down
Suggest correction
Creating personal tab
Creating personal tab
You can edit any tab online and save it as your Personal.

You can edit, replace or remove any tab part or add personal notes – all changes will be seen only by you.

Personal tabs can be accessed anytime from any device, even offline.
Learn more »
Give kudos to tab author, rate the tab!
1 2 3 4 5
comments
print report bad tab
1 comment total.
0 reply
m_moylan 41 Jun 27, 2009 11:50 AM

Perfect!

guest
You may want to rate the tab now too:
select rating
Wanna post a correction for this tab? Suggest correction