Oops, an error
Loading. Please wait.

Hajimari tab

version 1
version 1

Whole song

  • Only found one melody tab on this, so decided to go and do it all. Please enjoy.

Interactive

223 views 1 this week
no commentswrite comment
1 2 3 4 5
2 more votes to show rating
add to favorites
×
Save as Personal and add changes to this tab that will be seen only by you. Learn more ›
×
You can save this tab as Personal to edit and correct it or add notes. All changes will be seen only by you. Learn more »
launch autoscroll
font size
0
reset
how to read this tab
guitar tuner
edit
Autoscroll
slow
fast
+/-
esc
set tempo
stop
About this tab version
Only found one melody tab on this, so decided to go and do it all. Please enjoy. Was this info helpful? Yes No
Based off of YouTuber, kanaho22
https://www.youtube.com/watch?v=H1D1YUz4uhg
Masaaki Kishibe's Live Performance,
https://www.youtube.com/watch?v=Yimg4FGCiYI
--------------------------------------------
Song: Hajimari
Artist: Masaaki Kishibe
Tuning: DADGAD (Dsus4 / Celtic Tuning)
Capo: 3nd fret
Recommended Tempo: Andante (76-108)
Time Signature: Common Time (4/4)
--------------------------------------------


[Intro]
    E E E Q  E E E    E E E H    +E   4x
D||-----------0-----|-----------------||
A||------0--------0-|-----0-----------||
G||*-------0--------|-------0----(0)-*||
D||*-4----------0---|-4--------------*||
A||----0---2--------|---0---2----(2)--||
D||--0--------------|-0---------------||


 [A1]
   E E E Q  E E E     E E E E E E Q      E E E E E E E E   E E E E H
D|----------0-------|-------------0----|-----2p0-------0-|---------0-----------|
A|-----0--------0---|-----0------------|-----------4-----|-----0---------------|
G|-------0----------|-------0----------|---0---------4---|-------0-------------|
D|-4----------0-----|---2-------4------|-----------------|---4-----------------|
A|---0---2----------|-4----------------|---------0-------|---------------------|
D|-0----------------|---------0--------|-2---------------|-0-------0-----------|

                                                                         v
   E E E Q  E E E     E S S E E E E Q    E E E E E E E E   E E E E Q.    E
D|----------0-------|---------------0--|-----2p0---7p4p0-|---------0-----0-----|
A|-----0--------0---|-------0----------|-----------------|-----0---------0-----|
G|-------0----------|---------0--------|---0-------------|-------0-------0-----|
D|-4----------0-----|---0h2-------4----|-----------------|---4-----------4-----|
A|---0---2----------|-4----------------|---------0-------|---------------0-----|
D|-0----------------|-----------0------|-2---------------|-0-------0-----------|

 [B1]                                >
                  v                  v                                    v
   E E E E E E E  E   E E E E E E E  E   E E E E E E E E   E S S E Q E E  E
D|-----------0----0-|-----------0----0-|-----------0-----|-2-4p2---0------0----|
A|---------0------0-|---------0------0-|---------0-----0-|-------0---0----0----|
G|-------0--------0-|-------0--------0-|-------0---------|-------------0--0----|
D|-----4-------4--4-|-----4-------4--4-|-----4-------4---|-------4--------4----|
A|---2------------2-|---2------------0-|---0-------------|---0------------0----|
D|-2----------------|-2----------------|-0---------------|-0-------------------|

                                     >
                  v                  v
   E E E E E E E  E   E E E E E E E  E   E E E E E E E E   E S S E Q  E E E
D|-----------0----0-|-----------0----0-|-----------0-----|-2-4p2---0-----------|
A|---------0------0-|---------0------0-|---------0-----0-|-------0----0--------|
G|-------0--------0-|-------0--------0-|-------0---------|----------------0----|
D|-----4-------4--4-|-----4-------4--4-|-----4-------4---|-------4------4------|
A|---2------------2-|---2------------0-|---0-------------|---0-----------------|
D|-2----------------|-2----------------|-0---------------|-0-------------------|

                       ^                  ^
   E E H.              E E H.             E E E Q  E E E   E E E E E E E E
D|-0---2------------|--0---2-----------|--0-----2--3---2-|-------0-----0-2-----|
A|------------------|------------------|-----------------|-----------4---------|
G|------------------|--0---------------|--0---0----------|-----0---------------|
D|---0--------------|----0-------------|----0--------0---|---2-----------------|
A|-3----------------|--2---------------|--1--------------|-0-------0-----------|
D|------------------|------------------|-----------------|---------------------|

 [C1]
                                                ^
   S S E E E E E E E   E E Q  E E E E   E E Q   E E E S S   E E E E Q.  S S
D|-2/7---------0-----|--------4-----2-|-----0-----0-------|---------0---2/4----|
A|---------0-------7-|----------------|---------4---0-----|--------------------|
G|-----------6-------|-----4------3---|---------2-----2/4-|-------4------------|
D|-------4-------4---|---5------2-----|---4---------------|-----4--------------|
A|-----0-------------|-4------3-------|-2-------0---------|---5----------------|
D|-0-----------------|----------------|-------------------|-6------------------|


   E E E Q  E E E      E E E Q  E E E   E E E E E E E S S   E E E E E E E E
D|----------0---0----|----------0-2-4-|-----------4-------|-------0------------|
A|-------2-----------|-------4--------|---------4---------|---------3---0------|
G|-----0-------------|-----0----------|-------2-------2/5-|-----------4---0----|
D|---0--------0------|---2------------|-----0-------0-----|-----0--------------|
A|-------------------|-0--------------|---0---------------|---0----------------|
D|-2-----------------|----------------|-0-----------------|-0------------------|

 [D1]
   E E E E E E E E   E E E E E E E E   E E E E E S S E S S   E E E E E E E  E
D|---4-4-4-----0-2-|-------2---------|---2-2-2-------7-----|-------------------|
A|---5-5-5---7---4-|-----4-------4---|---4-4-4---4/7---7/9-|-------9-------10--|
G|---0-0-0-------2-|---2-------2---2-|---2-2-2-------------|-----7-------7-----|
D|-----------------|-----------------|---------------------|---7-------7-------|
A|-----------------|-----------------|---------------------|-------------------|
D|-5-------5-------|-4-------4-------|-4-------4-----------|-9-------9---------|


    E E E  Q  E E  E    E E E  Q  E E E   E E E E E E E E   E E E E E E E E
D|------------0------|------------0---7-|-------7-----7---|---------0---4-5----|
A|----------------10-|------------------|-----7-----7-----|---0---4---7--------|
G|------0-11---------|------0-11--------|---7-----7-----6-|-----4--------------|
D|----9---------9----|----9---------9---|-----------------|--------------------|
A|-------------------|------------------|-0---------------|-0------------------|
D|-10----------------|-10---------------|-----------------|--------------------|

 [C1]
   E E E E E E E E   E E E E E E E S S   E E E E E E E E   E E E E E E E E
D|-7---------0---0-|-------0---0-2-2/4-|-----------------|-------------0-2-----|
A|-------0-----7---|-----0---4---------|-------5-------0-|-------0---4---------|
G|---------6-------|-------------------|-----0-------4---|-----0---4-----------|
D|-----4-----------|---4---------------|---0-------0-----|---2-----------------|
A|---0-------------|-2-------0---------|-----------------|-0-------------------|
D|-0---------------|-------------------|-5-------5-------|---------------------|


   S S E E E E E E E   E E E E E E E S S   E E E E E E E E   E E E E E E E E
D|-2/7---------0---0-|-------0---0-2-2/4-|-----------------|-------------0-2---|
A|---------0-----7---|-----0---4---------|-------5-------0-|-------0---4-------|
G|-----------6-------|-------------------|-----0-------4---|-----0---4---------|
D|-------4-----------|---4---------------|---0-------0-----|---2---------------|
A|-----0-------------|-2-------0---------|-----------------|-0-----------------|
D|-0-----------------|-------------------|-5-------5-------|-------------------|

 [E1]
   E E E E E E E E   E E E E E E E E   E E E E E E E S S   E E E E E E E E
D|-0-----0-------2-|-------4p2p0-----|-0-----0-----------|---------------------|
A|-----------------|-------------0---|---------------4/5-|-------3---0---------|
G|-----0-------0---|---------------0-|-----0-------0-----|---------4---0-------|
D|---3-------2-----|-----0-----------|---3-------2-------|-----0---------4-----|
A|-1-------3-------|---0-------------|-1-------3---------|---0-----------------|
D|-----------------|-0---------------|-------------------|-0-------------------|

                                                        v
   E E E E E E E E   E E E S S E E E E   E E E E E E E  E  
D|-0-----0-------2-|-------2/7p4p0-----|-0-----0--------0-|
A|-----------------|---------------0---|----------------0-|
G|-----0-------0---|-----------------0-|-----0-------0--0-|
D|---3-------2-----|-----0-------------|---3-------2----4-|
A|-1-------3-------|---0---------------|-1-------3------0-|
D|-----------------|-0-----------------|------------------|

 [A2]
   E E E Q  E E E   E E E H    +E        E E E Q  E E E   E E E H    +E  
D|----------0-----|--------------------|----------0-----|----------------------|
A|-----0--------0-|-----0--------------|-----0--------0-|-----0----------------|
G|-------0--------|-------0----(0)-----|-------0--------|-------0----(0)-------|
D|---4--------0---|-4------------------|-4----------0---|-4--------------------|
A|-------2--------|---0---2----(2)-----|---0---2--------|---0---2----(2)-------|
D|-0--------------|-0------------------|-0--------------|-0--------------------|


   E E E Q  E E E   E E E E E E Q        E E E E E E E E   E E E E H     
D|----------0-----|-------------0------|-----2p0-------0-|---------0-----------|
A|-----0--------0-|-----0--------------|-----------4-----|-----0---------------|
G|-------0--------|-------0------------|---0---------4---|-------0-------------|
D|-4----------0---|---2-------4--------|-----------------|---4-----------------|
A|---0---2--------|-4------------------|---------0-------|---------------------|
D|-0--------------|---------0----------|-2---------------|-0-------0-----------|

                                                                          v  
   E E E Q  E E E    E S S E E E E Q      E E E E E E E E   E E E E Q.    E  
D|----------0------|---------------0----|-----2p0---7p4p0-|---------0-----0----|
A|-----0--------0--|-------0------------|-----------------|-----0---------0----|
G|-------0---------|---------0----------|---0-------------|-------0-------0----|
D|-4----------0----|---0h2-------4------|-----------------|---4-----------4----|
A|---0---2---------|-4------------------|---------0-------|---------------0----|
D|-0---------------|-----------0--------|-2---------------|-0-------0----------|

 [B2]                                  >
                  v                    v                                     v
   E E E E E E E  E     E E E E E E E  E   E E E E E E E E   E S S E Q  E E  E
D|-----------0----0---|-----------0----0-|-----------0-----|-2-4p2---0-------0-|
A|---------0------0---|---------0------0-|---------0-----0-|-------0----0----0-|
G|-------0--------0---|-------0--------0-|-------0---------|--------------0--0-|
D|-----4-------4--4---|-----4-------4--4-|-----4-------4---|-------4---------4-|
A|---2------------2---|---2------------0-|---0-------------|---0-------------0-|
D|-2------------------|-2----------------|-0---------------|-0-----------------|

                                       >
                  v                    v
   E E E E E E E  E     E E E E E E E  E    E E E E E E E E   E S S E Q  E E E  
D|-----------0----0---|-----------0----0--|-----------0-----|-2-4p2---0--------|
A|---------0------0---|---------0------0--|---------0-----0-|-------0----0-----|
G|-------0--------0---|-------0--------0--|-------0---------|----------------0-|
D|-----4-------4--4---|-----4-------4--4--|-----4-------4---|-------4------4---|
A|---2------------2---|---2------------0--|---0-------------|---0--------------|
D|-2------------------|-2-----------------|-0---------------|-0----------------|

                        ^                    ^
   E E H.               E E H.               E E E Q  E E E   E E E E E E E E 
D|-0---2--------------|-0---2--------------|-0-----2--3---2-|-------0-----0-2--|
A|--------------------|--------------------|----------------|-----------4------|
G|--------------------|-0------------------|-0---0----------|-----0------------|
D|---0----------------|---0----------------|---0--------0---|---2--------------|
A|-3------------------|-2------------------|-1--------------|-0-------0--------|
D|--------------------|--------------------|----------------|------------------|

 [C2]                                             ^
   S S E E E E E E E    E E Q  E E E E     E E Q  E E E S S   E E E E Q.   S S  
D|-2/7---------0------|--------4-----2---|-----0----0-------|---------0----2/4-|
A|---------0-------7--|------------------|--------4---0-----|------------------|
G|-----------6--------|-----4------3-----|--------2-----2/4-|-------4----------|
D|-------4-------4----|---6------2-------|---4--------------|-----4------------|
A|-----0--------------|-4------3---------|-2------0---------|---5--------------|
D|-0------------------|------------------|------------------|-6----------------|


   E E E Q   E E E   E E E Q   E E E   E E E E E E E S S   E E S S S S S S S S S S S S  
D|-----------0---0-|-----------0-2-4-|-----------4---4/7-|-------5p4---0----------------|
A|-------2---------|-------4---------|---------4-----4/7-|-----------7---3---0-------0--|
G|-----0-----------|-----0-----------|-------2-------2/5-|-----------------4---0---0----|
D|---0---------0---|---2-------------|-----0-------0-----|-----0-----------------4------|
A|-----------------|-0---------------|---0---------------|---0--------------------------|
D|-2---------------| ----------------|-0-----------------|-0----------------------------|

 [D2]
   E E E E E E E E   E S S S S S S S S S S +Q    E E E E E S S E S S   E E E E E E E  E 
D|---4-4-4-----0-2-|---------4-----------------|---2-2-2-------7-----|------------------|
A|---5-5-5---7---4-|-----------7p5p4-----------|---4-4-4---4/7---7/9-|-------9-------10-|
G|---0-0-0-------2-|---2/6h7---------6/4/2-(2)-|---2-2-2-------------|-----7-------7----|
D|-----------------|---------------------------|---------------------|---7-------7------|
A|-----------------|---------------------------|---------------------|------------------|
D|-5-------5-------|-4-------------------------|-4-------4-----------|-9-------9--------|


    E E E  Q  E E  E     E E E  Q  E E E    E E E E E E E E   E E E E E E E E 
D|------------0-------|------------0---7--|-------7-----7---|---------0---4-5--|
A|----------------10--|-------------------|-----7-----7-----|---0---4---7------|
G|------0-11----------|------0-11---------|---7-----7-----6-|-----4------------|
D|----9---------9-----|----9---------9----|-----------------|------------------|
A|--------------------|-------------------|-0---------------|-0----------------|
D|-10-----------------|-10----------------|-----------------|------------------|

[C2]
   E E E E E E E E       E E E E E E E S S   E E E E E E E E   E E E E E E E E 
D|-7---------0---0-----|-------0---0-2-2/4-|-----------------|-------------0-2-|
A|-------0-----7-------|-----0---4---------|-------5-------0-|-------0---4-----|
G|---------6-----------|-------------------|-----0-------4---|-----0---4-------|
D|-----4---------------|---4---------------|---0-------0-----|---2-------------|
A|---0-----------------|-2-------0---------|-----------------|-0---------------|
D|-0-------------------|-------------------|-5-------5-------|-----------------|


   S S E E E E E E E     E E E E E E E S S   E E E S S E E E E   E E E E E E E E  
D|-2/7---------0---0-|-------0---0-2-2/4-|-------5p4---------|-------------0-2-|
A|---------0-----7---|-----0---4---------|-----------5-----0-|-------0---4-----|
G|-----------6-------|-------------------|-----0---------4---|-----0---4-------|
D|-------4-----------|---4---------------|---0---------0-----|---2-------------|
A|-----0-------------|-2-------0---------|-------------------|-0---------------|
D|-0-----------------|-------------------|-5---------5-------|-----------------|

 [E2]
   E E E E E E E E     E E E E E E E E     E E E E E E E S S   E E E E E E E E   
D|-0-----0-------2---|-------4p2p0-------|-0-----0-----------|-----------------|
A|-------------------|-------------0-----|---------------4/5-|-------3---0-----|
G|-----0-------0-----|---------------0---|-----0-------0-----|---------4---0---|
D|---3-------2-------|-----0-------------|---3-------2-------|-----0---------4-|
A|-1-------3---------|---0---------------|-1-------3---------|---0-------------|
D|-------------------|-0-----------------|-------------------|-0---------------|

                                                          >
                                                          v
   E E E E E E E E     E E E S S E E E E   E E E E E E E  E   E E E Q  E E E   E E E H    +E
D|-0-----0-------2---|-------4/7p4p0-----|-0-----0--------0-|----------0-----|---------------------|
A|-------------------|---------------0---|----------------0-|-----0--------0-|-----0---------------|
G|-----0-------0-----|-----------------0-|-----0-------0--0-|-------0--------|-------0----(0)------|
D|---3-------2-------|-----0-------------|---3-------2----4-|---4--------0---|-4-------------------|
A|-1-------3---------|---0---------------|-1-------3------0-|-------2--------|---0---2----(2)------|
D|-------------------|-0-----------------|------------------|-0--------------|-0-------------------|


  [Ending]
     E E E Q  E E E   E E E Q  T S. E E   E E E Q  E E E   E E E Q  T S. E E   3x
D||-----------0-----|----------4/5--4p0-|----------0-----|---------------------||
A||------0--------0-|-----0-------------|-----0--------0-|-----0----4/5--4p0---||
G||*-------0--------|-------0-----------|-------0--------|-------0------------*||
D||*-4----------0---|-4-----------------|-4----------0---|-4------------------*||
A||----0---2--------|---0---2-----------|---0---2--------|---0---2-------------||
D||--0--------------|-0-----------------|-0--------------|-0-------------------||


   E E E Q  E E E    E E E Q  T S. E E   E E E E E E E E   E E H.
D|----------0------|----------4/5--4p0-|-----------0-----|---------------------||
A|-----0--------0--|-----0-------------|---------0---0---|---------------------||
G|-------0---------|-------0-----------|-------0-------0-|---------------------||
D|-4----------0----|-4-----------------|-----4-----------|-----0---------------||
A|---0---2---------|---0---2-----------|---0-------------|---0-----------------||
D|-0---------------|-0-----------------|-0---------------|-0-------------------||
                                    

Duration Legend
---------------
W - whole
H - half
Q - quarter
E - 8th
S - 16th
T - 32nd
. - note dotted


Tablature Legend
----------------
() - tied note
> - accented note
h - hammer on
p - pull off
/ -  slide into from below or out of upwards
\ -  slide into from above or out of downwards
^ - brush up
v - brush down

            
            
Suggest correction
Creating personal tab
Creating personal tab
You can edit any tab online and save it as your Personal.

You can edit, replace or remove any tab part or add personal notes – all changes will be seen only by you.

Personal tabs can be accessed anytime from any device, even offline.
Learn more »
Give kudos to tab author, rate the tab!
1 2 3 4 5
comments
print report bad tab
guest
You may want to rate the tab now too:
select rating
Wanna post a correction for this tab? Suggest correction