Oops, an error
Loading. Please wait.

Shooting Star tab

1,003 views 54 this week
no commentswrite comment
1 2 3 4 5
2 more votes to show rating
add to favorites
×
Save as Personal and add changes to this tab that will be seen only by you. Learn more ›
×
You can save this tab as Personal to edit and correct it or add notes. All changes will be seen only by you. Learn more »
launch autoscroll
font size
0
reset
how to read this tab
guitar tuner
edit
Autoscroll
slow
fast
+/-
esc
set tempo
stop
Based off of YouTube video by Yosuke Jinnouchi,
https://www.youtube.com/watch?v=5FDEnvXieCU
------------------------------------
Artist: Masaaki Kishibe
Song: Shooting Star
Tuning: CGDGAD
Capo: 5nd fret
Recommended Tempo: Adagio (66-76bpm)
Time Signature: Half Time (2/4)
------------------------------------

 [A1]                             ^
   E E E E  E E E E      E E E E  E E S S S S  
D|-----0--------0------|-----0----0----------------|
A|---------------------|------------------0--------|
G|-0--------0----------|-0--------------0---0------|
D|---0---0----0---0----|-------0--4---4------------|
G|-0-------------------|---0--------2--------------|
C|----------4----------|-0--------2----------------|
              
                                  ^  f
   E E E E  E E E E      E E E E  E. E.  S S
D|-----0--------0------|-----0----0--4br-2p0-------|
A|---------------------|---------------------------|
G|----------0----------|-0-------------------------|
D|---0---0----0---0----|-------0--4----------------|
G|-0-------------------|---0-----------------------|
C|----------4----------|-0--------2----------------|

 [B1]                                      f
   E E S S S S E E E E   E E S S S S S S S E.  S S
D|-------------0-------|-----------------0-4br-2p0-|
A|-2-------0-------3-2-|-0-------0---0h2-----------|
G|-------0---0---------|-------4---0---------------|
D|-----0---------------|-----0---------------------|
G|---4-----------0-----|---2---------0-------------|
C|-4-----------0-------|-2-------------------------|

                                           f
   E E S S S S E E E E   E E S S S S E S S E   S S
D|-------------0-------|-----------------0-4br-2p0-|
A|-2-------0-------3-2-|-0-------0-----------------|
G|-------0---0---------|-------4---0---------------|
D|-----0---------------|-----0---------0-----------|
G|---4-----------0-----|---2---------0-------------|
C|-4-----------0-------|-2-------------------------|

                                           f
   E E S S S S E E E E   E E S S S S S S S E.  S S
D|-------------0-------|-----------------0-4br-2p0-|
A|-2-------0-------3-2-|-0-------0---0h2-----------|
G|-------0---0---------|-------4---0---------------|
D|-----0---------------|-----0---------------------|
G|---4-----------0-----|---2---------0-------------|
C|-4-----------0-------|-2-------------------------|

   E E S S S S E E E E   E E S S S S E E E S S
D|-------------0-------|-----------------0---------|
A|-2-------0-------3-2-|-0-------0-----------------|
G|-------0---0---------|-------4---0---------0-----|
D|-----0---------------|-----0---------0---0-------|
G|---4-----------0-----|---2---------0-------------|
C|-4-----------0-------|-2-------------------------|

 [C1]
   E S S S S S S E E S S S S    E E S S S S E S S S S S S
D|-0-----0h2---0-------------|-------------------------0---|
A|-------------------3---0---|-0-----0h2-----------0-------|
G|-----------0---------4---0-|-----------0-------0---0-----|
D|-----2---------------------|-----0-----------4-----------|
G|---0-------------2---------|---4-----------4-------------|
C|-0-------------2-----------|-4-----------4---------------|

   E S S S S S S E E S S E     E E S S S S S S S S S S S S
D|-0-----0h2---0-----4h5-4---|-4---2p0---------------------|
A|---------------------------|------------2---2p0-------0--|
G|-----------0---------------|---0---------------0---0---0-|
D|-----2---------------------|---------0-----------4-------|
G|---0-------------2---------|-----------------------------|
C|-0-------------2-----------|-4-----------4---------------|

   E S S S S S S E E S S S S   E E S S S S E E S S S S
D|-0-----0h2---0-------------|-----------------------------|
A|-------------------3---0---|-0-----0h2-----------0-------|
G|-----------0---------4---0-|-----------0-------0---------|
D|-----2---------------------|-----0-----------4-----0-----|
G|---0-------------2---------|---4-----------4-------------|
C|-0-------------2-----------|-4-----------4---------------|

                                               v
   E E S E.    E E E E         E E S S S S E.  S S S S S
D|---------------------------|-----------0-----0-----------|
A|---------------------------|-0-------0-------0-------0---|
G|-------------------0-------|-------0---------0-----0-----|
D|-----0h2---------2---------|-----4-----------4---4-------|
G|---0-----------0-----------|---2-------------2-----------|
C|-0-----------0-------------|-2-----------2---2-2---------|
 
 [D1]
   E E S S S S E E S S S S     E E S S S S E S S S S S S
D|-0-------------------------|-0-----0h2---------------0---|
A|-------3---0---------0-----|---------------------0-------|
G|---------4---------0---0---|-----0-----0-------0---0-----|
D|-----2-----------4---------|---4-------------4-----------|
G|---0-----------2-----------|-4-------------4-------------|
C|-0-----------2-------------|-------------4---------------|

    E  E S S S S E E S S S S   S S E S S S S S S S S S S S S
D|---------------------------|-----------------------0---4-5----|
A|---------3---0---------0---|-------3---0-----0---3---7--------|
G|-----------4---------0---0-|-2/4-----4---0-----4--------------|
D|-------2-----------4-------|-----0----------------------------|
G|-----0-----------2---------|-0-------------0------------------|
C|--0------------2-----------|----------------------------------|

   S S E S S S S S S S S S S S S   E S S S S S S S S E S S S S
D|-7h9---9p7---7-7h9---9-9p7---0-|-----5p4-0--------------------|
A|-------------------------------|-----------0---0h2-------0----|
G|-----0-----8-------0-------8---|-------------0---------0---0--|
D|-------------------------------|---0-----------------4--------|
G|-------------------------------|-0-----------------4----------|
C|-0-------------0---------------|---------------4--------------|

   E E S S S S E E S S S S         E E S S S S   H
D|-----------0-------5p4p0-------|-0-------------0--------------|
A|-------0h2---------------------|---------0--------------------|
G|-----0-----------0-------------|-------0---0------------------|
D|---2-----------2---------------|-----4------------------------|
G|-2-----------2-----------------|---2--------------------------|
C|-------------------------------|-2-------------2--------------|

 [A2]                             ^
   E E E E  E E E E      E E E E  E E S S S S
D|-----0--------0------|-----0----0----------------|
A|---------------------|------------------0--------|
G|-0--------0----------|-0--------------0---0------|
D|---0---0----0---0----|-------0--4---4------------|
G|-0-------------------|---0--------2--------------|
C|----------4----------|-0--------2----------------|
           
                                   ^   f
   E E E E  E E E E      E E E E   E.  E.  S S
D|-----0--------0------|-----0-----0---4br-2p0-----|
A|---------------------|---------------------------|
G|----------0----------|-0-------------------------|
D|---0---0----0---0----|-------0---4---------------|
G|-0-------------------|---0-----------------------|
C|----------4----------|-0---------2---------------|

 [B2]                                      f
   E E S S S S E E E E   E E S S S S S S S E.  S S
D|-------------0-------|-----------------0-4br-2p0-|
A|-2-------0-------3-2-|-0-------0---0h2-----------|
G|-------0---0---------|-------4---0---------------|
D|-----0---------------|-----0---------------------|
G|---4-----------0-----|---2---------0-------------|
C|-4-----------0-------|-2-------------------------|

                                           f
   E E S S S S E E E E   E E S S S S E S S E   S S
D|-------------0-------|-----------------0-4br-2p0-|
A|-2-------0-------3-2-|-0-------0-----------------|
G|-------0---0---------|-------4---0---------------|
D|-----0---------------|-----0---------0-----------|
G|---4-----------0-----|---2---------0-------------|
C|-4-----------0-------|-2-------------------------|

                                           f
   E E S S S S E E E E   E E S S S S S S S E.  S S
D|-------------0-------|-----------------0-4br-2p0-|
A|-2-------0-------3-2-|-0-------0---0h2-----------|
G|-------0---0---------|-------4---0---------------|
D|-----0---------------|-----0---------------------|
G|---4-----------0-----|---2---------0-------------|
C|-4-----------0-------|-2-------------------------|

   E E S S S S E E E E   E E S S S S E E E S S
D|-------------0-------|-----------------0---------|
A|-2-------0-------3-2-|-0-------0-----------------|
G|-------0---0---------|-------4---0---------0-----|
D|-----0---------------|-----0---------0---0-------|
G|---4-----------0-----|---2---------0-------------|
C|-4-----------0-------|-2-------------------------|

 [C2]
   E S S S S S S E E S S S S   E E S S S S E S S S S S S
D|-0-----0h2---0-------------|-------------------------0-----|
A|-------------------3---0---|-0-----0h2-----------0---------|
G|-----------0---------4---0-|-----------0-------0---0-------|
D|-----2---------------------|-----0-----------4-------------|
G|---0-------------2---------|---4-----------4---------------|
C|-0-------------2-----------|-4-----------4-----------------|

   E S S S S S S E E S S E    E E S S S S S T T S S S S S S
D|-0-----0h2---0-----4h5-4---|-4---2p0-----------7-5-4-------|
A|---------------------------|-----------2-------------7-5---|
G|-----------0---------------|---0-----------2/4-----------0-|
D|-----2---------------------|---------0---------------------|
G|---0-------------2---------|-------------------------------|
C|-0-------------2-----------|-4-----------4-----------------|

   E S S S S S S E E S S S S   E E S S S S E E S S S S
D|-0-----0h2---0-------------|-------------------------------|
A|-------------------3---0---|-0-----0h2-----------0---------|
G|-----------0---------4---0-|-----------0-------0-----------|
D|-----2---------------------|-----0-----------4-----0-------|
G|---0-------------2---------|---4-----------4---------------|
C|-0-------------2-----------|-4-----------4-----------------|

                                                ^
   E E S E.   E E E E           E E S S S S E.  E.  E
D|---------------------------|------------0-----0------------|
A|---------------------------|--0-------0-------0---0--------|
G|------------------0--------|--------0---------0------------|
D|-----0h2--------2----------|------4-----------4------------|
G|---0----------0------------|----2-------------2------------|
C|-0----------0--------------|--2-----------2---2------------|

 [D2]
   E E S S S S E E S S S S     E E S S S S E S S S S S S
D|-0-------------------------|-0-----0h2---------------0-----|
A|-------3---0---------0-----|---------------------0---------|
G|---------4---------0---0---|-----0-----0-------0---0-------|
D|-----2-----------4---------|---4-------------4-------------|
G|---0-----------2-----------|-4-------------4---------------|
C|-0-----------2-------------|-------------4-----------------|

   E  E S S S S E E S S S S        S S E S S S S S S S S S S S S
D|-------------------------------|-----------------------0---4-5-|
A|--------3---0---------0--------|-------3---0-----0---3---7-----|
G|----------4---------0---0------|-2/4-----4---0-----4-----------|
D|------2-----------4------------|-----0-------------------------|
G|----0-----------2--------------|-0-------------0---------------|
C|-0------------2----------------|-------------------------------|

   S S E S S S S S S S S S S S S   E S S S S S S S S E S S S S
D|-7h9---9p7---7-7h9---9-9p7---0-|-----5p4-0---------------------|
A|-------------------------------|-----------0---0h2-------0-----|
G|-----0-----8-------0-------8---|-------------0---------0---0---|
D|-------------------------------|---0-----------------4---------|
G|-------------------------------|-0-----------------4-----------|
C|-0-------------0---------------|---------------4---------------|

   E E S S S S E E S S S S         E E S S S S   H
D|-----------0-------5-4-0-------|-0-------------0---------------|
A|-------0h2---------------------|---------0---------------------|
G|-----0-----------0-------------|-------0---0-------------------|
D|---2-----------2---------------|-----4-------------------------|
G|-2-----------2-----------------|---2---------------------------|
C|-------------------------------|-2-------------2---------------|

 [Ending]                      ^                                        ^
    E E E E E E E E   E E E E  E E S S S S   E E E E E E E E   E E E E  E E S S S S
D|------0-------0---|-----0----0-----------|-----0-------0---|-----0----0-------------|
A|------------------|------------------0---|-----------------|--------------3---0-----|
G|*-0-------0-------|-0--------------0---0-|---------0-------|-0--------------4---0--*|
D|*---0---0---0---0-|-------0--4---4-------|---0---0---0---0-|-------0--4------------*|
G|--0---------------|---0--------2---------|-0---------------|---0--------2-----------|
C|----------4-------|-0--------2-----------|---------4-------|-0--------2-------------|

                               ^                                        ^
   E E E E  E E E E  E E E E   E E S S S S   E E E E E E E E   E E E E  E E S S S S
D|-----0--------0---|-----0----0-----------|-----0-------0---|-----0----0-------------|
A|------------------|------------------0---|-----------------|--------------3---0-----|
G|-0--------0-------|-0--------------0---0-|---------0-------|-0--------------4---0---|
D|---0---0----0---0-|-------0--4---4-------|---0---0---0---0-|-------0--4-------------|
G|-0----------------|---0--------2---------|-0---------------|---0--------2-----------|
C|----------4-------|-0--------2-----------|---------4-------|-0--------2-------------|

   E H..
D|-------------------|
A|-------------------|
G|-2h4---------------|
D|-0-----------------|
G|-0-----------------|
C|-------------------|


************************************

Duration Legend
---------------
W - whole
H - half
Q - quarter
E - 8th
S - 16th
T - 32nd
. - note dotted

Tablature Legend
----------------
h - hammer on
p - pull off
br - bend and release
f - full bend
/ -  slide into from below or out of upwards
\ -  slide into from above or out of downwards
^ - brush up
v - brush down

************************************

            
            
Suggest correction
Creating personal tab
Creating personal tab
You can edit any tab online and save it as your Personal.

You can edit, replace or remove any tab part or add personal notes – all changes will be seen only by you.

Personal tabs can be accessed anytime from any device, even offline.
Learn more »
Give kudos to tab author, rate the tab!
1 2 3 4 5
comments
print report bad tab
guest
You may want to rate the tab now too:
select rating
Wanna post a correction for this tab? Suggest correction