Oops, an error
Loading. Please wait.

Brutalidad Tab

by Masacre
53 views 1 this week
no commentswrite comment
1 2 3 4 5
3 more votes to show rating
add to favorites
×
Save as Personal and add changes to this tab that will be seen only by you. Learn more ›
×
You can save this tab as Personal to edit and correct it or add notes. All changes will be seen only by you. Learn more »
save as personal
new!
launch autoscroll
font size
0
reset
how to read this tab
guitar tuner
Autoscroll
slow
fast
+/-
esc
set tempo
stop
INTRO:
B------------------/---3b-------------     3b : tambien se puede tocar: 
G----------3-2-----/------------------     7b           
D--------1------2--/------------------
A-6----------------/----------2p------

DE Ahi esto que se repite en la letra:

intro y letra de versos:
HOMBRE ENBRUTECIDO, MATA SIN SENTIDO ...


[ch]Em - F5[/ch] - --2-- 
           --2-- 
           --X--
           --X--
           --X--
           --X--

SE REPITE SIEMPRE Y CUANDO DICE:

...SOLO POR EL PODER !!!!!!!


A5 - --6-- - G5 - --4--  
     --6--        --4--
     -----        -----
     -----        -----
     -----        -----
     -----        -----

SE REPITE:  
¡¡¡¡¡¡¡¡¡¡¡¡¡¡BRUTAL¡¡¡¡¡¡¡¡¡¡¡¡¡¡¡¡¡¡¡¡¡¡¡ 

   
DESPUES: se repite el intro de los versos:

HOMBRES QUE ANIQUILARAN TU SER sobre el kamino de sus sueños ...

---8---  -   ---7---  
---8---      ---9---  
-------      ---9---
-------      ---7---  
-------      ---7---
-------      ---7---

VICTIMAS DEL AYER .......:

E-----------------------------      los 1 se repiten mas veces ...
B-----------------------------
G-------------3-2-1-----------
D--------3-2--------------3-2-
A--1-1---------------1-1------


CREO QUE ES ASI , DESPUES se repite una parte del verso y
 viene el solo:


G---15s16bvv---------------18-17-16----------------------
D--------------15-16-17--------------16-15-14-------------- 

y de ahi la parte rapida que debe ser algo asi:

E-----------------------------------------------------12bvv------------12pvv.....
B-------------------------------------------------------------11-10-----
G--------------------------(101312)---------9bvv-----------------------   o sea se repite los de  
D---(141716)----18bvv--------------------------------------------------   () y acaban en los 
                                                                          **:bvv 

LA PARTE RAPIDA espero q este por ahi, es la idea

DEPUES sE REPITE TODO 
y acaba en:
solo dan brytalidad ahahaha¡¡¡

---8---  -   ---7---  - ---9--  -  --7-- 
---8---      ---9---    ---9--     --9--
-------      ---9---    ------     --9--
-------      ---7---    ------     --7--
-------      ---7---    ------     --7--
-------      ---7---    ------     --7--

Letra:

Hombre embrutecido,
mata sin sentido
Revolucionando sólo
por el poder

Brutal, ritual, brutal

Hombres que aniquilan
Ciegos de esta vida
Terror todo el tiempo
Solo por el maldito poder
Hombres que
aniquilarán tu ser
Sobre el camino
de sus sueños
Sangre fría de animal,
sólo dan brutalidad
Víctimas del ayer muertos
sin saber el porqué

Brutal, ritual, brutal

Fuerzas de venganza,
contra el genocidio
Pelear por tu vida,
sin la brutalidad
Hombres que
aniquilarán tu ser
Con sangre fría de animal
Van exterminando ya
Sólo dan brutalidad.


SALUDOS PARA LA CONGREGACION METAL.. DEL PERU
Y GRACIAS A los metal nuevos y la gente hardcore... 'vamos mutantes'¡¡...

Luisex

nota: aqui les va tambien el punteo intro de la cancion 'sin' , el ragueo intro despues kles doy:

E----------------------/-------------------------------
B----------------------/-------------------------------
G----------------------/-------------------------------
D-----5---4----2---1---/----5---4---2------------------
A---3---3----3---------/--3---3---3----2---------------
E----------------------/-------------------------------


pUnkOr3X
Suggest correction
Give kudos to tab author, rate the tab!
1 2 3 4 5
comments
print report bad tab
guest
Wanna post a correction for this tab? Suggest correction