Oops, an error
Loading. Please wait.

El Hechicero Tab

47 views 1 this week
no commentswrite comment
1 2 3 4 5
3 more votes to show rating
add to favorites
launch autoscroll
font size
0
reset
how to read this tab
guitar tuner
×
Best way to learn
"El Hechicero"
Autoscroll
slow
fast
+/-
esc
set tempo
stop
Transcrito por: Julio cesar velasquez vara (juliokorn57@
Procedencia: lima - Peru
banda:M.A.S.A.C.R.E


			EL HECHICERO

intro :
primera guitarra:
|--------------------------------------------11~~~~~~~~~~~~~~~~~~~~~~---
|--------------------11~~~~~~~~~~~~~~~~~~~~~----------------------------
|-----------------------------------------------------------------------
|-----------------------------------------------------------------------
|-----------------------------------------------------------------------
|-----------------------------------------------------------------------
segunda guitarra:
|-----------------------------------------------------------------------
|-----------------------------------------------------------------------
|---11-10-8~~~~~~~~~~~~~~~~~~~~~~~~~~~~~~~~~~~~~~~~~~-------------------
|---11-10-8~~~~~~~~~~~~~~~~~~~~~~~~~~~~~~~~~~~~~~~~~~-------------------
|---9--8--6~~~~~~~~~~~~~~~~~~~~~~~~~~~~~~~~~~~~~~~~~~-------------------
|-----------------------------------------------------------------------


minuto (0:23)
guitarra 1:
|--------------------------------------16h18h16h18h16h18h16h18h16h18h16-
|-----------------------------------------------------------------------
|-----------------------------------------------------------------------
|-----------------------------------------------------------------------
|-----------------------------------------------------------------------
|-----------------------------------------------------------------------

guitarra 2:
|------------------------------------------------------------------------
|------------------------------------------------------------------------
|--8-8-8-8-8-8-------8-8-8-8-8-8-6-----8-8-8-8-8-8-------8-8-8-8-8-8-6---
|--8-8-8-8-8-8-8-9---8-8-8-8-8-8-6-----8-8-8-8-8-8-8-9---8-8-8-8-8-8-6---
|--6-6-6-6-6-6-8-9---6-6-6-6-6-6-4-----6-6-6-6-6-6-8-9---6-6-6-6-6-6-4---
|--------------6-7---------------------------------6-7-------------------


guitarra 1 y2:
|--------------------------------------------------------------------------
|--------------------------------------------------------------------------
|--8-8-8-8-8-8------8-8-8-8-8-8-6--8-8-8-8-8-8------8-8-8-8-8-8------------
|--8-8-8-8-8-8-8-9--8-8-8-8-8-8-6--8-8-8-8-8-8-8-9--8-8-8-8-8-8-6-4-6-4----
|--6-6-6-6-6-6-8-9--6-6-6-6-6-6-4--6-6-6-6-6-6-8-9--6-6-6-6-6-6-4-2-4-2-6-8
|--------------6-7-----------------------------6-7----------------------4-6


en las estrofas va estos riff

primera estrofa
minuto (0:46)


encuentro el siniestro el hechisero vuelve a asolar
|--------------------------------------------------------------
|--------------------------------------------------------------
|---8---8-------------6---6-8------------8-------------6---6---
|---8---8-8---8-9---9-6---6-8------------8-8---8-9---9-6---6---
|---6---6-8---8-9---9-4---4-6------------6-8---8-9---9-4---4---
|---------6---6-7---7----------------------6---6-7---7---------

vuelve con sus venas       su alma llena de maldad esta
|--------------------------------------------------------------
|--------------------------------------------------------------
|---8-----8----------------6----6--8---------------------------
|---8-----8--8---8--9---9--6----6--8---------------------------
|---6-----6--8---8--9---9--4----4--6---------------------------
|------------6---6--7---7--------------------------------------

entraran a matar no poder llevameeeeeeeeee

|-------------------------------------------------------
|-------------------------------------------------------
|---8-----8---------------------------------------------
|---8-----8--8---8--9---9--6-4-6-4----------------------
|---6-----6--8---8--9---9--4-2-4-2-6-8------------------
|------------6---6--7---7----------4-6------------------

riff 2
guitarra |1:
|---------------------------------------------------
|---------------------------------------------------
|---------------------------------------------------
|---------------------------------------------------
|------------5---------4-6--4--4-4----4-2-4-2-------
|---6-6--6-7----7-7-7------------------------4-6----

guitarra 2:
|----------------------------------------------------
|----------------------------------------------------
|--------------4--4-4-4---6--6-6-6-------------------
|---8--8-8-8---4--4-4-4---6--6-6-6----6-4-6-4--------
|---8--8-8-8---2--2-2-2---4--4-4-4----4-2-4-2-6-8----
|---6--6-6-6----------------------------------4-6----


(de ahi sigue este riff)
riff3
guitarra 1:
|------------------------------------------------------
|------------------------------------------------------
|------------------------------------------------------
|------------3---------3-4-3~~~~~~~~-------------------
|--4~~~~-4-6----6~~~~6---------------------------------
|------------------------------------------------------

guitarra 2:
|------------------------------------------------------
|------------------------------------------------------
|------------------------------------------------------
|------------------------------------------------------
|------------5---------4-6--4--4-4----4-2-4-2----------
|---6-6--6-7----7-7--7------------------------4-6------


(y luego en la siguiente estrofa se repiten los riff  1 2 3)


gente se le acerca
y sueña con venganza igualdad
vende su alma a diablo
una cuantas monedas bastara

entraran a matar
no poder llevameeeeeeeeeee


misterio y su suerte
la fuerza de sus embrujo la vera
pero no es eterno
su maldita cabeza rodaraaaaa noooo no
yeeeeeeeeee


guitarra 1:
|---------------------------------------
|---------------------------------------
|------6--8-8-8-8-8-8-8-----------------
|---4--6--8-8-8-8-8-8-8-----------------
|---4--4--6-6-6-6-6-6-6-----------------
|---2-----------------------------------
guitarra 2:
|---------------------------------------
|---------------------------------------
|---11-10-8-8-8-8-8-8-8-----------------
|---11-10-8-8-8-8-8-8-8-----------------
|---9--8--6-6-6-6-6-6-6-----------------
|---------------------------------------
  luego el punteo ...y de ahi

guitarra 1y2:
|------------------------
|------------------------
|---------6-----8--------
|---9-----6-----8--------
|---9-----4-----6--------
|---7--------------------

y es un paso al mundo de dios
guitarra 1y2:
|------------------------
|------------------------
|---------6-----8--------
|---9-----6-----8--------
|---9-----4-----6--------
|---7--------------------
con  posimas    y   hierbas
guitarra 1y2:
|----------------------------------------
|----------------------------------------
|-------------------6--------------------
|---9---------------6--------------------
|---9---------------4--------------------
|---7------------------------------------

maldito ye yeeeeeeeeeeeee
guitarra 1y2:
|------------------------------------------
|------------------------------------------
|---8---8----8-----8~~~~~~~~~~~~~~~~~~~~~~-
|---8---8----8-----8~~~~~~~~~~~~~~~~~~~~~~-
|---6---6----6-----6~~~~~~~~~~~~~~~~~~~~~~-
|------------------------------------------


cualquier duda  sugerencia o mas tabs escribir al correo
un saludo pa la gente de palermasacre
y al grupo I.N.R.I
con los vagos de alex daigoro jefry y quien escribe
a los satanes granda cesar y karol(exs_InRi)
y a la gente que se reune los domingos en ChAhuA-ReCEpCionEs
donde tocamos
Suggest correction
Give kudos to tab author, rate the tab!
1 2 3 4 5
comments
print report bad tab
guest
You may want to rate the tab now too:
select rating
Wanna post a correction for this tab? Suggest correction