Oops, an error
Loading. Please wait.

Hasta El Final Tab

56 views 1 this week
no commentswrite comment
1 2 3 4 5
3 more votes to show rating
add to favorites
launch autoscroll
font size
0
reset
how to read this tab
guitar tuner
×
Best way to learn
"Hasta El Final"
Autoscroll
slow
fast
+/-
esc
set tempo
stop
Transcrito por: Julio cesar velasquez vara (juliokorn57@
Procedencia: lima - Peru
banda:M.A.S.A.C.R.E.


				HASTA EL FINAL

hasta el final         vamooooooooos
intro:
guitarra 1:
|---------------------------------------------------------
|---------------------------------------------------------
|----6------------6----------------6------------6---------
|----6-9-8-9-9-8--6-9-8-9----------6-9-8-9-9-8--6-9-8-9---          -
|----4-9-8-9-9-8--4-9-8-9----------4-9-8-9-9-8--4-9-8-9---	     -
|------7-6-7-7-6----7-6-7------------7-6-7-7-6----7-6-7---	      -
								       -
guitarra 2:								- van juntas (x2)
|--------------------------------------------------------------        -
|-------------------------3h4h3--------------------------------       -
|-------------------------------4------------------------1-3---      -
|---6-6-6-6-6-6-6-6-6-6-6----------6-6-6-6-4-4-2-2---1-4-------	    -
|---6-6-6-6-6-6-6-6-6-6-6----------6-6-6-6-4-4-2-2-------------
|---4-4-4-4-4-4-4-4-4-4-4----------4-4-4-4-2-2-0-0-------------


acaso no han pensado en quien nos sigue
riff 1;
guitarra 1:
|------------------------------------------
|------------------------------------------
|---8-8-8-6-4-4----------------------------
|---8-8-8-6-4-4-4-4------------------------
|---6-6-6-4-2-2-4-4------------------------
|---------------2-2------------------------
guitarra 2:
|------------------------------------------
|------------------------------------------
|---8-8-8-6-9-9----------------------------
|---8-8-8-6-9-9-11-11----------------------
|---6-6-6-4-7-7-11-11----------------------
|---------------9--9-----------------------


no tienen ni el valor para enfrentar...

guitarra 1:
|-----------------------------------------------
|-----------------------------------------------
|---8-8-8-6-4-4---------------------------------
|---8-8-8-6-4-4-4-4-----------------------------
|---6-6-6-4-2-2-4-4-----------------------------
|---------------2-2-----------------------------
guitarra 2:
|----------------------------------------------
|----------------------------------------------
|---8-8-8-6-9-9--------------------------------
|---8-8-8-6-9-9-11-11--------------------------
|---6-6-6-4-7-7-11-11--------------------------
|---------------9--9---------------------------


unamos nuestras fuerzas contra el viento que apodera esa pasion que brota en la sangre
riff 2
guitarra 1:
|---------------------------------------------------------------------------
|---------------------------------------------------------------------------
|------------------------------4-x-x-x-4-4p3--------------------------------
|-----4-3h4--3-4--4-3h4-----------------------------4---3-4-3--1-3-1--4-6-4-
|---2-----------------------------------------------------------------------
|---------------------------------------------------------------------------

guitarra 2
|---------------------------------------------------------------------------
|---------------------------------------------------------------------------
|----------------------------9-9-9-9-9-9------------------------------------
|----9-9-9-9-9-9-8-8-8-8-8-8-9-9-9-9-9-9------------------------------------
|----9-9-9-9-9-9-8-8-8-8-8-8-7-7-7-7-7-7------------6---4-6-4--2-4-2--1-2-1-
|----7-7-7-7-7-7-6-6-6-6-6-6------------------------------------------------

coro:
hasta el final     resistire
guitarra 1y2:
|---------------------------------
|---------------------------------
|---6-8-6-8---8-8---11-10-6-6h4---
|---6-8-6-8---8-8---11-10-6-6h4---
|---4-6-4-6---6-6---9--8--4-4h2---
|---------------------------------

hasta el final     hasta el final del tiempo yo vivire
guitarra 1y2:
|--------------------------------------------
|--------------------------------------------
|---6-8-6-8---8-8---11-10-6-6h4--------------
|---6-8-6-8---8-8---11-10-6-6h4---4-3---4----
|---4-6-4-6---6-6---9--8--4-4h2-----------2--
|--------------------------------------------


rep intro.

rep coro.


(para esta estrofa se repiten los riff 1 2 3)


somos de hierro acero y que importa
que valoren esa estupida memoria
levantemos nuestros puños
y entonemos todos juntos que al final
nuestro dia lleguara

rep coro.


SOLO
guitarra 1:
|--------------------------------------------------------------------------------
|---------------------------------------------------------------12-14-12-14-16---
|-------------6-898-686--6------------6-6-4-3-4-3---------11-13------------------
|---6h4h6---69----------9-9 bis-------------------6-4-6h13-----------------------
|-------------------------------7------------------------------------------------
|--------------------------------------------------------------------------------

guitarra 2:
|--------------------------------------------------------------------------------
|--------------------------------------------------------------------------------
|---8-8-8-8-8-8-------------------------------8-X-8-X-8--------------------------
|---6-6-6-6-6-6-9-9-9-9-9-9-10-10-10-10-10-10-6-X-6-X-6--------------------------
|---------------7-7-7-7-7-7-9--9--9--9--9--9-------------------------------------
|--------------------------------------------------------------------------------


guitarra 1:
|-----------------------------------------------------------------------
|---16-14-12-11---------------------------------------------------------
|---------------13-11---------------------------------------------------
|----------------------11-13-14-13h11-14h11-13h11-14h11-13h11-14h11-----
|-----------------------------------------------------------------------
|-----------------------------------------------------------------------
guitarra 2:
|-----------------------------------------------------------------------
|-----------------------------------------------------------------------
|-----------------------------------------------------------------------
|---9-9-9-9-9-9-8-X-8-X-8-X-8-X-8-X-8-----------------------------------
|---7-7-7-7-7-7-6-X-6-X-6-X-6-X-6-X-6-----------------------------------
|-----------------------------------------------------------------------


guitarra 1
|----------------------14h1614-13-11---------------------------------
|---------12-11-14-12----------------14-12-11------------------------
|---13-11-------------------------------------13-11-10___________1---
|--------------------------------------------------------------------
|--------------------------------------------------------------------
|--------------------------------------------------------------------

guitarra 2
|-------------------------------------------------------------------
|-------------------------------------------------------------------
|-------------------------------------------------------------------
|---9-9-9-9-9-9-8-X-6-X-4-X-3---------------------------------------
|---7-7-7-7-7-7-6-X-4-X-2-X-1---------------------------------------
|-------------------------------------------------------------------


fuerteeeeeeeeeeeeeeeeeeeeeeeeeeee

rep coro (x2)


queja o sugerencia escribir al correo
un saludo al grupo I.N.R.I con los poseros de alex jefry daigoro
y quien escribe ya con su nuevo integrante el new metalero oCHoa
y otro a mi amore neli en cuzco ojala regreses pronto...
¡MuErTe A Los CelTas (kArOl ,GranDa ,etc)!
y qUe ViVa El bUeN MeTal!
Suggest correction
Give kudos to tab author, rate the tab!
1 2 3 4 5
comments
print report bad tab
guest
You may want to rate the tab now too:
select rating
Wanna post a correction for this tab? Suggest correction