Oops, an error
Loading. Please wait.

Huellas Y Sangre Tab

23 views 1 this week
no commentswrite comment
1 2 3 4 5
3 more votes to show rating
add to favorites
launch autoscroll
font size
0
reset
how to read this tab
guitar tuner
×
Best way to learn
"Huellas Y Sangre"
Autoscroll
slow
fast
+/-
esc
set tempo
stop
Tema: huellas de sangre
Interprete: M.A.S.A.C.R.E
Transcrito por: Julio cesar velasquez vara (juliokorn57@@
Procedencia: lima - Peru

              HUELLAS DE SANGRE
                 masacre
                   peru

OjO (Bajar dos tonos a las guitarras)
intro:
primera guitarra:			(x2)
(riff 1)
|---------------/----------------
|---------------/----------------
|--------0------/-------0-0------
|------2--------/-----1----------
|----2----------/---1------------
|--0------------/----------------


primera guitarra
|---------------/----------------
|---------------/----------------
|--------0------/-------0-0------
|------2--------/-----1----------       -
|----2----------/---1------------	 -
|--0------------/----------------	  -
					   -
					    - (van juntas)(x2)
segunda guitarra:			    -
|---------------------------------	   -
|----5------------5----------4----        -
|------4--3--4------4--3--4-------	 -
|---------------------------------      -
|---------------------------------
|---------------------------------


Atrapado en mi celda
|---------------/----------------
|---------------/----------------
|--------0------/-------0-0------
|------2--------/-----1----------
|----2----------/---1------------
|--0------------/----------------

Recordando tu dolooooooooooooooor
|---------------/----------------
|---------------/----------------
|--------0------/-------0-0------
|------2--------/-----1----------
|----2----------/---1------------
|--0------------/----------------


primer solo:

primera guitarra

|--12--------------------------------------
|-------12-11~~~------7-8------------------
|-------------------9----------9-8-7-------
|-----------------9----------9-------------   -
|------------------------------------------    -
|------------------------------------------     -
					   	 -
					         .- (van juntas)(x2)
segunda guitarra:			    	 -
|---------------/----------------		-
|---------------/----------------	       -
|--------0------/-------0-0------  	      -
|------2--------/-----1----------
|----2----------/---1------------
|--0------------/----------------

(y toda esta estrofa va con el riff 1)

Envuelto en este misterio
Queda tu sangre
en el espejo
Miedo y golpe en
mis sentidos
Hizo el cielo al infierno


coro:

huellas..                   de dolor...


|-----------------------------------------------------
|-----------------------------------------------------
|--------------5-5-------------------------5-5--------
|--2-22--5-55--5-5-------------2-22--5-55--5-5--------
|--2-22--5-55--3-3-0-----------2-22--5-55--3-3-0------
|--0-00--3-33--------2-3-------0-00--3-33--------2-3--

huellas                     de tu cuerpo
|-----------------------------------------------------
|-----------------------------------------------------
|--------------5-5-------------------------5-5--------
|--2-22--5-55--5-5-------------2-22--5-55--5-5--------
|--2-22--5-55--3-3-0-----------2-22--5-55--3-3-0------
|--0-00--3-33--------2-3-------0-00--3-33--------2-3--

(acompañado del riff 1)

Sangre goteando
en mis manos
La razón pierdo
lentamente
Siempre vivirá esta
imagen en mi mente
Piérdete soto
en mis recuerdos


rep. coro:


Recordando tu sangre          en mi piel          Aterrado por mi maldad
guitarra 1:
|-------------------------------
|-------------------------------
|-------------------------------
|---4~~~~~~~~~~~~~~~~~~---------
|-------------------------------
|-------------------------------   -
				    -
guitarra 2:			     - van juntas (x4)
|------------------------------      -
|------------------------------     -
|------------------------------    -
|------------------------------
|-------7-----10-----7-----5---
|---0-0---0-0----0-0---0-0-----


huellaaaaaaaaaaaaaaaaaaaaassssssssssss...


riff 2  (la dos guitarras juntas)       (X4)
|-----------------------------
|-----------------------------
|-----------6-6-6-5-5-5-4-4-4-
|-----------6-6-6-5-5-5-4-4-4-
|-----------4-4-4-3-3-3-2-2-2-
|---0-3-2-0-------------------


solo:
guitarra 1:
|-----------------------------------------------------------------
|---7-------------------------------------------------------------
|---9h11---11-9-7-9-7------------7--------------------------------
|---------------------9-7-9-----------9-7---7---------------------
|-----------------------------------------9---9-8-7-5-7-5h7-------
|-----------------------------------------------------------------

guitarra 2
|-----------------------------------------------------------------
|-----------------------------------------------------------------
|-----------6-6-6-------------------------------6-6-6-5-5-5-4-4-4-
|-----------6-6-6------------4-4-4--------------6-6-6-5-5-5-4-4-4-
|-----------4-4-4------------4-4-4--------------4-4-4-3-3-3-2-2-2-
|---0-3-2-0--------0-3-2-0---2-2-2------0-3-2-0-------------------


guitarra 1
|------------------------------------------10--------------------------
|-------------------------------------10h12--12-11----------------7----
|--------------------------7------------------------11-9-11-9-9-7-9h11-
|-----------------7---7-9----9-7-9-------------------------------------
|----5-7-7-5-7--9---9--------------------------------------------------
|----------------------------------------------------------------------
guitarra 2
|--------------------------------------------------------------------
|--------------------------------------------------------------------
|-----------6-6-6-------------------------------6-6-6-5-5-5-4-4-4----
|-----------6-6-6------------4-4-4--------------6-6-6-5-5-5-4-4-4----
|-----------4-4-4------------4-4-4--------------4-4-4-3-3-3-2-2-2----
|---0-3-2-0--------0-3-2-0---2-2-2------0-3-2-0----------------------


ohhhhhhh
|--------------------------
|--------------------------
|---4h6-6----4h6-6-6-6-----    (x3)
|---4h6-6----4h6-6-6-6-----
|---2h4-4----2h4-4-4-4-----
|--------------------------

huellas de sangre  recorren mi piel
|--------------------------
|--------------------------
|---4h6-6----4h6-6-6-6-----
|---4h6-6----4h6-6-6-6-----
|---2h4-4----2h4-4-4-4-----
|--------------------------

Huellas de sangre no lo olvidaré,
|--------------------------
|--------------------------
|---4h6-6----4h6-6-6-6-----
|---4h6-6----4h6-6-6-6-----
|---2h4-4----2h4-4-4-4-----
|--------------------------

huellaaaaaaaaaaaaaaaaaaaaassssssssssss...


riff 2  (la dos guitarras juntas)       (X4)
|-----------------------------
|-----------------------------
|-----------6-6-6-5-5-5-4-4-4-
|-----------6-6-6-5-5-5-4-4-4-
|-----------4-4-4-3-3-3-2-2-2-
|---0-3-2-0-------------------


guitarra 1
|-----------9~~~--8~~~--7~~~-
|----------------------------
|----------------------------
|----------------------------
|----------------------------
|----------------------------
guitarra 2
|-----------------------------
|-----------------------------
|-----------6-6-6-5-5-5-4-4-4-
|-----------6-6-6-5-5-5-4-4-4-
|-----------4-4-4-3-3-3-2-2-2-
|---0-3-2-0-------------------

(entra el riff 1)

Que la paz hasta que nos
volvamos a encontrar...


uffff esto cansa ...saquenle buen provecho pex
saludos a la banda I.N.R.I entrando a fase blackmetal
conformada por alex(bateria) jefry(voz) daigoro(bajo)
y quien escribe(primera guitarra)
y a los satanistas Ex-InRi granda , cesar y mi alumno karol
cualquier sugerencia presentacion o nuevo tab
porfavor escribir al correo
Suggest correction
Give kudos to tab author, rate the tab!
1 2 3 4 5
comments
print report bad tab
guest
You may want to rate the tab now too:
select rating
Wanna post a correction for this tab? Suggest correction