Oops, an error
Loading. Please wait.

Cicatriz Tab

11 views 1 this week
no commentswrite comment
1 2 3 4 5
3 more votes to show rating
add to favorites
launch autoscroll
font size
0
reset
how to read this tab
guitar tuner
Autoscroll
slow
fast
+/-
esc
set tempo
stop
Help us to improve Ultimate-Guitar.com Take our survey!
×
1------------------------------------
2------------------------------------
3------------------------------------
4-----------6---6-----------6----6-7-
5--7h9-7h9---7-7-7--7h9-7h9---7-7----
6-0--------0--0----0-------0---0-----

[ch]Em                             LA[/ch]
1-12-11---------------------------12-11--------------------------
2------12-9----------------------------12-9----------------------
3-----------11-11----------------------------11-11-13-13-13-14-13
4-----------------11-11-13-13-14---------------------------------

[ch]Em           LA[/ch]
1-12-11---------------------------------------
2------12-9-----------------------------------
3----------11-11-11---------------------------
4------------------11-11-11-11-13-13-13-14-14-
14-16-16-16-14-16-18-18-18-18-16--------------

verso
quiero encontrarle un sentido
[ch]Bm C#/Dbmenor[/ch] [ch]A[/ch] [ch]D[/ch] x2
precoro
ya ceraron mis heridas
[ch]Fm [ch]A[/ch] x SIm[/ch] x2
coro
no hay nada (nada)
c#/Dbmenor x sim la x2 x sim c#/Dbmenor
 [ch]A C#/Dbmenor x [ch]Bm[/ch] LA[/ch]

aunque en las noches no duerma
[ch]Bm C#/Dbmenor[/ch] [ch]A[/ch] [ch]D[/ch] x2

precoro:
coro:

Solo:


c#/Dbmenor la sim x sim x sim x4
coro:...

1-12-11---------------------------12-11--------------------------
2------12-9----------------------------12-9----------------------
3-----------11-11----------------------------11-11-13-13-13-14-13
4-----------------11-11-13-13-14---------------------------------

1-12-11--------------------------------------------------------
2------12-9----------------------------------------------------
3----------11-11-11--------------------------------------14-16-
4------------------11-11-13-13-14-14-14-14-16-14-16-14-16------

x
1-0
2-0
3-9
4-9
5-7
6-7

c#/Dbmenor

1-0
2-0
3-0
4-11
5-11
6-9
q ay les dejo esa rolla aver si les gusta adarga92@
version electrica(recomendable)o como gusten es con bases o normal
Suggest correction
Give kudos to tab author, rate the tab!
1 2 3 4 5
comments
print report bad tab
guest
You may want to rate the tab now too:
select rating
Wanna post a correction for this tab? Suggest correction