Oops, an error
Loading. Please wait.

Para Ti Tab

version 3
version 3

Whole song

Interactive

11 views 1 this week
no commentswrite comment
1 2 3 4 5
3 more votes to show rating
add to favorites
launch autoscroll
font size
0
reset
how to read this tab
guitar tuner
Autoscroll
slow
fast
+/-
esc
set tempo
stop
(HOLA LA  YA VAN 2 VECES QUE RECHAZAN MI
TRANSCRIPCIÓN, Y PUES NO ENTIENDO EL PORQUE, YA QUE ESTA MUCHO
MEJOR QUE LA QUE TIENEN, YA QUE AQUI ESTA COMPLETA Y
PRACTICAMENTE SIN ERRORES. ESPERO QUE TOMEN EN CUENTA MI
COMENTARIO Y LA CHEQUEN, POR FAVOR
GRACIAS)

Muy bn grupo y muy bna canción jeje espero les guste esta muy
fácil nomas oiganla varias veces =D

Intro
e|-------------------------------------------|    e|-----
B|-------------------------------------------|    B|-----
G|-------------------------------------------| x4 G|-4~--
D|----4--1--------1-------4--1-------1-------|    D|-4~--
A|-2--------2--4-------2--------2--4----4----|    A|-2~--
E|-------------------------------------------|    E|-----

Hay otra guitarra q acompaña asi:
e|-------------------------------------------|    e|-----
B|-------------------------------------------|    B|-----
G|-4-4-4-4-4---------------------------------| x2 G|-4~--
D|-4-4-4-4-4-6-6-6-6-6-2-2-2-2-2-4-4-4-4-4---|    D|-4~--
A|-2-2-2-2-2-6-6-6-6-6-2-2-2-2-2-4-4-4-4-4---|    A|-2~--
E|-----------4-4-4-4-4-0-0-0-0-0-2-2-2-2-2---|    E|-----

Verso 1
Me botaste, me rechazaste no tenía dinero y
nunca me pelaste
PM******************************************
e|-------------------------------------------|
B|-------------------------------------------|
G|-------------------------------------------|
D|-4-4-4-4-4---------------------------------|
A|-2-2-2-2-2-6-6-6-6-6-2-2-2-2-2-4-4-4-4-4---|
E|-----------4-4-4-4-4-0-0-0-0-0-2-2-2-2-2---|

Cuando te hablaba nunca mirabas, dabas la vuelta
ibas con alguien mas
PM******************************************
e|-------------------------------------------|
B|-------------------------------------------|
G|-------------------------------------------|
D|-4-4-4-4-4---------------------------------|
A|-2-2-2-2-2-6-6-6-6-6-2-2-2-2-2-4-4-4-4-4---|
E|-----------4-4-4-4-4-0-0-0-0-0-2-2-2-2-2---|

Pre-coro
Eras tan fresa y no podias estar con alguien como yo
e|-------------------------------------------|
B|-------------------------------------------|
G|-------------------------------------------|
D|-2-2-2-2-2-4-4-4-4-4-2-2-2-2-2-6~--6-4-----|
A|-2-2-2-2-2-4-4-4-4-4-2-2-2-2-2-6~--6-4-----|
E|-0-0-0-0-0-2-2-2-2-2-0-0-0-0-0-4~--4-2-----|

Coro
Y ahora regreso, no soy el mismo escuchas esto te
acuerdas de mi
e|-------------------------------------------|
B|-------------------------------------------|
G|-4-4-4-4-4---------------------------------|
D|-4-4-4-4-4-4-4-4-4-4-6-6-6-6-6-2-2-2-2-2---|
A|-2-2-2-2-2-4-4-4-4-4-6-6-6-6-6-2-2-2-2-2---|
E|-----------2-2-2-2-2-4-4-4-4-4-0-0-0-0-0---|

Quieres buscarme, piensas mirarme puedes hacerlo solo
en la televisión
e|-------------------------------------------|
B|-------------------------------------------|
G|-4-4-4-4-4---------------------------------|
D|-4-4-4-4-4-4-4-4-4-4-6-6-6-6-6-2-2-2-2-2---|
A|-2-2-2-2-2-4-4-4-4-4-6-6-6-6-6-2-2-2-2-2---|
E|-----------2-2-2-2-2-4-4-4-4-4-0-0-0-0-0---|

Break 1
e|----------------------------------------------------|
B|----------------------------------------------------|
G|-4--6--8--9----4--6--9--8----4--6--8--9--11~----11~-|
D|-x--x--x--x----x--x--x--x----x--x--x--x--x------x---|
A|-2--4--6--7----2--4--7--6----2--4--6--7--9~-----9~--|
E|----------------------------------------------------|

La otra guitarra acompaña igual que el intro:
e|-------------------------------------------------|
B|-------------------------------------------------|
G|-4-4-4-4-4---------------------------------------| x1
D|-4-4-4-4-4-6-6-6-6-6-2-2-2-2-2-4-4-4-4-4~--------|
A|-2-2-2-2-2-6-6-6-6-6-2-2-2-2-2-4-4-4-4-4~--------|
E|-----------4-4-4-4-4-0-0-0-0-0-2-2-2-2-2~--------|

Verso 2
Te sonrojaste, ya te acordaste, cerre tu boca
mira lo que soy
PM   *********   *********   *********   ************
e|---------------------------------------------------|
B|---------------------------------------------------|
G|-4-------------------------------------------------|
D|-4-4-4-4-4-4-6-----------2-----------4-------------|
A|-2-2-2-2-2-2-6-6-6-6-6-6-2-2-2-2-2-2-4-4-4-4-4-4---|
E|-------------4-4-4-4-4-4-0-0-0-0-0-0-2-2-2-2-2-2---|

Te platicaba, tu te burlabas escuchas esto
esto es para ti...
PM   *********   *********   *********   ************
e|---------------------------------------------------|
B|---------------------------------------------------|
G|-4-------------------------------------------------|
D|-4-4-4-4-4-4-6-----------2-----------4-------------|
A|-2-2-2-2-2-2-6-6-6-6-6-6-2-2-2-2-2-2-4-4-4-4-4-4---|
E|-------------4-4-4-4-4-4-0-0-0-0-0-0-2-2-2-2-2-2---|

Pre-coro
Eras tan fresa y no podias estar con alguien como yo
e|-------------------------------------------|
B|-------------------------------------------|
G|-------------------------------------------|
D|-2-2-2-2-2-4-4-4-4-4-2-2-2-2-2-6~--6-4-----|
A|-2-2-2-2-2-4-4-4-4-4-2-2-2-2-2-6~--6-4-----|
E|-0-0-0-0-0-2-2-2-2-2-0-0-0-0-0-4~--4-2-----|

Coro
Y ahora regreso, no soy el mismo escuchas esto te
acuerdas de mi
e|-------------------------------------------|
B|-------------------------------------------|
G|-4-4-4-4-4---------------------------------|
D|-4-4-4-4-4-4-4-4-4-4-6-6-6-6-6-2-2-2-2-2---|
A|-2-2-2-2-2-4-4-4-4-4-6-6-6-6-6-2-2-2-2-2---|
E|-----------2-2-2-2-2-4-4-4-4-4-0-0-0-0-0---|

Quieres buscarme, piensas mirarme puedes hacerlo solo
en la televisión
e|-------------------------------------------|
B|-------------------------------------------|
G|-4-4-4-4-4---------------------------------|
D|-4-4-4-4-4-4-4-4-4-4-6-6-6-6-6-2-2-2-2-2---|
A|-2-2-2-2-2-4-4-4-4-4-6-6-6-6-6-2-2-2-2-2---|
E|-----------2-2-2-2-2-4-4-4-4-4-0-0-0-0-0---|

Break 2
                           solo en la televisión...
e|--------------------------------------------|
B|--------------------------------------------|
G|-4--------8--------9-------11---------------|
D|-x--------x--------x-------x----------------|
A|-2--------6--------7-------9----------------|
E|--------------------------------------------|

e|--------------------------------------------|
B|--------------------------------------------|
G|-9-8-9-8-9-8--11/1311--9--9-8-9-8--11~-----|
D|-x-x-x-x-x-x--x-/x-x---x--x-x-x-x--x-------|
A|-7-6-7-6-7-6--9-/119---7--7-6-7-6--9~------|
E|--------------------------------------------|

La otra lira acompaña asi:
e|-------------------------------------------|
B|-------------------------------------------|
G|-4-4-4-4-4---------------------------------| x2
D|-4-4-4-4-4-6-6-6-6-6-2-2-2-2-2-4-4-4-4-4---|
A|-2-2-2-2-2-6-6-6-6-6-2-2-2-2-2-4-4-4-4-4---|
E|-----------4-4-4-4-4-0-0-0-0-0-2-2-2-2-2---|

Pre-coro
Eras tan fresa y no podias estar con alguien como yo
  Sin distor...                    Con distor...
e|---------------------------------------------|
B|---------------------------------------------|
G|---------------------------------------------|
D|-2-2-2-2-2-4-4-4-4-4-2-2-2-2-2---6x----6-4---|
A|-2-2-2-2-2-4-4-4-4-4-2-2-2-2-2---6x----6-4---|
E|-0-0-0-0-0-2-2-2-2-2-0-0-0-0-0---4x----4-2---|

Ultimo coro
Y ahora regreso, no soy el mismo escuchas esto te
acuerdas de mi
e|-------------------------------------------|
B|-------------------------------------------|
G|-4-4-4-4-4---------------------------------|
D|-4-4-4-4-4-4-4-4-4-4-6-6-6-6-6-2-2-2-2-2---|
A|-2-2-2-2-2-4-4-4-4-4-6-6-6-6-6-2-2-2-2-2---|
E|-----------2-2-2-2-2-4-4-4-4-4-0-0-0-0-0---|

Quieres buscarme, piensas mirarme puedes hacerlo solo
en la televisión
e|-------------------------------------------|
B|-------------------------------------------|
G|-4-4-4-4-4---------------------------------|
D|-4-4-4-4-4-4-4-4-4-4-6-6-6-6-6-2-2-2-2-2---|
A|-2-2-2-2-2-4-4-4-4-4-6-6-6-6-6-2-2-2-2-2---|
E|-----------2-2-2-2-2-4-4-4-4-4-0-0-0-0-0---|

Se repite:
Y ahora regreso, no soy el mismo escuchas esto te
acuerdas de mi
e|-------------------------------------------|
B|-------------------------------------------|
G|-4-4-4-4-4---------------------------------|
D|-4-4-4-4-4-4-4-4-4-4-6-6-6-6-6-2-2-2-2-2---|
A|-2-2-2-2-2-4-4-4-4-4-6-6-6-6-6-2-2-2-2-2---|
E|-----------2-2-2-2-2-4-4-4-4-4-0-0-0-0-0---|

Quieres buscarme, piensas mirarme puedes hacerlo solo
en la televisión
e|-------------------------------------------|
B|-------------------------------------------|
G|-4-4-4-4-4---------------------------------|
D|-4-4-4-4-4-4-4-4-4-4-6-6-6-6-6-2-2-2-2-2---|
A|-2-2-2-2-2-4-4-4-4-4-6-6-6-6-6-2-2-2-2-2---|
E|-----------2-2-2-2-2-4-4-4-4-4-0-0-0-0-0---|

Termina en:
e|---------|
B|---------|
G|--4~~----|
D|--4~~----|
A|--2~~----|
E|---------|

Ojala les haya gustado, cualquier duda ahi ta mi mail...
mpx_101@
Compren el disco esta bno :P
Suggest correction
Give kudos to tab author, rate the tab!
1 2 3 4 5
comments
print report bad tab
guest
Wanna post a correction for this tab? Suggest correction