Oops, an error
Loading. Please wait.

Veneno Tab

version 1
version 1

Whole song

14 views 1 this week
no commentswrite comment
1 2 3 4 5
3 more votes to show rating
add to favorites
launch autoscroll
font size
0
reset
how to read this tab
guitar tuner
Autoscroll
slow
fast
+/-
esc
set tempo
stop
Help us to improve Ultimate-Guitar.com Take our survey!
×
--->INTRO

Chords
   A               D
e-------------------------------------------
B--14-14----14-14----14-14----14-17-17-17---
G-------16-------16-------16----------------
D-------------------------------------------
A-------------------------------------------
E-------------------------------------------

   A               D
e-------------------------------------------
B--14-14----14-14----14-14----14-17-14------
G-------16-------16-------16-----------16---
D-------------------------------------------
A-------------------------------------------
E-------------------------------------------

   A               D
e-------------------------------------------
B--14-14----14-14----14-14----14-17-17-17---
G-------16-------16-------16----------------
D-------------------------------------------
A-------------------------------------------
E-------------------------------------------

   A               D
e---------------------------------------------
B--14-14----14-14----14-14----14-17-14--------
G-------16-------16-------16-----------16--14-
D---------------------------------------------
A---------------------------------------------
E---------------------------------------------

A       E
Perdido,                    --
E            F#m
En el tiempo,
F#m        D        A
es donde queda mi amor.
                                  / Verso!
A        E                       /
Son sólo, cenizas,              /
F#m       D                    /
Son sólo un recuerdo.       --/

E                D
Quiero decirte que           --
          E
no puedo más,
 E           D                    > Pre-Coro!
tengo que dejar de pensar,       /
                                /
en tí.                       --/

A      E
Veneno, es eso,              --
F#m        D          A
que siento en mi corazón,
A        E         F#m             >Coro!!
sigo buscando el alivio,         /
F#m     D            A          /
para olvidar la soledad.     --/


---> Vuelve con medio intro:

Chords
   A               D
e-------------------------------------------
B--14-14----14-14----14-14----14-17-17-17---
G-------16-------16-------16----------------
D-------------------------------------------
A-------------------------------------------
E-------------------------------------------

   A               D
e-------------------------------------------
B--14-14----14-14----14-14----14-17-14------
G-------16-------16-------16-----------16---
D-------------------------------------------
A-------------------------------------------
E-------------------------------------------


A         E
Me Siento,                  --
E            F#m
En el fondo,
F#m        D        A
de ese abismo de dolor.
                                  / Verso!
A        E          F#m          /
Buscando, tu cuerpo             /
F#m       D                    /
¿Donde estás?.              --/


E                D
Quiero decirte que           --
          E
no puedo más,
              E           D       > Pre-Coro!
ahora se que no debió empezar,   /
                                /
no debió empezar.            --/


A      E
Veneno, es eso,              --
F#m        D          A
que siento en mi corazón,
A        E         F#m
sigo buscando el alivio,
F#m     D            A
para olvidar la soledad.
                                      > Coro!
A      E                             /
Veneno, es eso,                     /
F#m        D          A            /
que siento en mi corazón,         /
A      E             F#m         /
ven y dímelo sin miedo,         /
F#m     D         A            /
se que no regresarás.       --/


--->Interlude
    chekale aki bien, por que va a la par con la batería..=)
   A        D         A
e--------------------------
B--------------------------
G--------------------------
D---------------------77777
A--00-0000--555-55555------ X4 Veces
E--------------------------


A      E                   --
Veneno, es eso,
F#m        D          A
que siento en mi corazón,
A      E             F#m        / Coro!!
ven y dímelo sin miedo,        /
F#m     D         A           /
se que no regresarás.      --/

-->Outro: Al final hay una pekeña variación.. fácil de sacar al
          oído

Chords
   A               D
e-------------------------------------------
B--14-14----14-14----14-14----14-17-17-17---
G-------16-------16-------16----------------
D-------------------------------------------
A-------------------------------------------
E-------------------------------------------

   A               D
                     Que no regresarás...
e-------------------------------------------
B--14-14----14-14----14-14----14-17-14------
G-------16-------16-------16-----------16---
D-------------------------------------------
A-------------------------------------------
E-------------------------------------------

   A               D
e----------------------------------------------
B--14-14----14-14----14-14----14-17-14---------
G-------16-------16-------16-----------16-14-16
D----------------------------------------------
A----------------------------------------------
E----------------------------------------------

   A               D
                     Que no regresarás...
e---------------------------------------------
B--14-14----14-14----14-14----14-17-14--------
G-------16-------16-------16-----------16--14-
D---------------------------------------------
A---------------------------------------------
E---------------------------------------------

Fin!!!
Suggest correction
Give kudos to tab author, rate the tab!
1 2 3 4 5
comments
print report bad tab
guest
You may want to rate the tab now too:
select rating
Wanna post a correction for this tab? Suggest correction