Oops, an error
Loading. Please wait.

Veneno Tab

version 2
version 2

Whole song

14 views 1 this week
no commentswrite comment
1 2 3 4 5
3 more votes to show rating
add to favorites
×
Save as Personal and add changes to this tab that will be seen only by you. Learn more ›
×
You can save this tab as Personal to edit and correct it or add notes. All changes will be seen only by you. Learn more »
save as personal
new!
launch autoscroll
font size
0
reset
how to read this tab
guitar tuner
Autoscroll
slow
fast
+/-
esc
set tempo
stop
MASSAPAN - VENENO

----------------------------------
--------------------VEKo-------------
------------------------------------------

ESTA TABLATURA ESTA 100 % CORRECTA
ME TOMO SACAR ESTE TEMA MEDIA
HORA PERO PARA KE DECIR MAS
ES EL MEJOR TEMA KE TIENE
[ch]A[/ch] BANDA MASSAPAN
SI KIEREN MAS TEMAS DE ESTA BANDA
SOLO ESCRIBIR AL MSN:
Doors789@

INTRO:
A#5                                F5
e|----------------------------------------------|-13-13-------------|
B|--15-15-13-15--15--15-13-15--15--15-13-15--15-|-------15h13-------|
G|----------------------------------------------|-------------------|
D|----------------------------------------------|-------------------|
A|----------------------------------------------|-------------------|
E|----------------------------------------------|-------------------|

A#5                                F5
e|----------------------------------------------|-13-13-------------|
B|--15-15-13-15--15--15-13-15--15--15-13-15--15-|-------15-15-11----|
G|----------------------------------------------|-------------------|
D|----------------------------------------------|-------------------|
A|----------------------------------------------|-------------------|
E|----------------------------------------------|-------------------|

A#5                                F5

e|----------------------------------------------|-13-13-------------|
B|--15-15-13-15--15--15-13-15--15--15-13-15--15-|-------15h13-------|
G|----------------------------------------------|-------------------|
D|----------------------------------------------|-------------------|
A|----------------------------------------------|-------------------|
E|----------------------------------------------|-------------------|
A#5                                F5

e|----------------------------------------------|-13-13-------------|
B|--15-15-13-15--15--15-13-15--15--15-13-15--15-|-------15-15-11----|
G|----------------------------------------------|-------------------|
D|----------------------------------------------|-------------------|
A|----------------------------------------------|-------------------|
E|----------------------------------------------|-------------------|


A#5       F5
Perdido en el tiempo
G5            D#5
Es donde queda mi amor
A#5       F5
Son solo cenizas
G5              D#5
Son solo un recuerdo
F5                   G5
Quiero decirte que no puedo mas
F5                   G5          D#5
Tengo que dejar de pensar en ti

CORO:
A#5    F5
Veneno es eso
G5              D#5
Que siento en mi corazón
A#5       F5           G5            D#5
Sigo buscando el alivio para olvidar la soledad

A#5                                F5
e|----------------------------------------------|-13-13-------------|
B|--15-15-13-15--15--15-13-15--15--15-13-15--15-|-------15h13-------|
G|----------------------------------------------|-------------------|
D|----------------------------------------------|-------------------|
A|----------------------------------------------|-------------------|
E|----------------------------------------------|-------------------|

A#5                                F5
e|----------------------------------------------|-13-13-------------|
B|--15-15-13-15--15--15-13-15--15--15-13-15--15-|-------15-15-11----|
G|----------------------------------------------|-------------------|
D|----------------------------------------------|-------------------|
A|----------------------------------------------|-------------------|
E|----------------------------------------------|-------------------|

A#5         F5
Me siento en el fondo
G5                    D#5
 De ese abismo de dolor
A#5      F5         G5                D#5
Buscando tu cuerpo donde estas
F5             G5
quiero decirte que  no puedo mas
F5
esta historia debe terminar
G5                F5               D#5
ahora se que no debio empezar
D#5
no debio empezar

CORO:
A#5       F5
Veneno es eso
G5                D#5
 Que siento en mi corazón
A#5       F5          G5                 D#5
Sigo buscando el alivio para olvidar la soledad

A#5      F5
Veneno es eso
G5            D#5
Que siento en mi corazon
A#5      F5      G5
ven y dimelo sin miedo
            D#5
Se que no regresaras
       A#5                D#5              F5
e|----------------------------------------------|
B|----------------------------------------------|
G|----------------------------------------------|
D|----------------------------------------------|
A|-1-1-1-1-1--6-6-6-6-6-------------------------|
E|----------------------1-1-1-1-1-1-1-1-1-1-----|
   A#5         D#5      F5         G5
e|----------------------------------------------|
B|----------------------------------------------|
G|----------------------------------------------|
D|----------------------------------------------|
A|-1-1-1-1-1--6-6-6-6-6-------------------------|
E|----------------------1-1-1-1-1--3-3-3-3-3----|

   A#5         D#5       F5
e|----------------------------------------------|
B|----------------------------------------------|
G|----------------------------------------------|
D|----------------------------------------------|
A|-1-1-1-1-1--6-6-6-6-6-------------------------|
E|----------------------1-1-1-1-1-1-1-1-1-1-----|
   A#5         D#5       F5
e|----------------------------------------------|
B|----------------------------------------------|
G|----------------------------------------------|
D|----------------------------------------------|
A|-1-1-1-1-1--6-6-6-6-6-------------------------|
E|-----------------------1-1-1-1-1-1-1-1-1-1----|


A#5     F5
Veneno es eso
G5          D#5
Que siento en mi corazon
A#5     F5      G5
ven y dimelo sin miedo
          D#5
Se que no regresaras

A#5                                F5
e|----------------------------------------------|-13-13-------------|
B|--15-15-13-15--15--15-13-15--15--15-13-15--15-|-------15h13-------|
G|----------------------------------------------|-------------------|
D|----------------------------------------------|-------------------|
A|----------------------------------------------|-------------------|
E|----------------------------------------------|-------------------|

A#5                                F5
e|----------------------------------------------|-13-13-------------|
B|--15-15-13-15--15--15-13-15--15--15-13-15--15-|-------15-15-11----|
G|----------------------------------------------|-------------------|
D|----------------------------------------------|-------------------|
A|----------------------------------------------|-------------------|
E|----------------------------------------------|-------------------|

SALUDOS PARA LA XIKA MAZ LINDA : P???? JEJEJE
SALUDOS A TODA LA BANDA:
FALLEN ROCK DE  ABANCAY - PERU
PUEDEN BUSCAR TEMAS DE LA BANDA EN:

SI KIEREN MAS TEMAS DE ESTA BANDA
SOLO ESCRIBIR AL MSN:
Doors789@
Suggest correction
Give kudos to tab author, rate the tab!
1 2 3 4 5
comments
print report bad tab
guest
Wanna post a correction for this tab? Suggest correction