Oops, an error
Loading. Please wait.

Ya No Existes Tab

25 views 1 this week
no commentswrite comment
1 2 3 4 5
3 more votes to show rating
add to favorites
launch autoscroll
font size
0
reset
how to read this tab
guitar tuner
×
Best way to learn
"Ya No Existes"
Autoscroll
slow
fast
+/-
esc
set tempo
stop
Intro

[ch]D s Bm SOL[/ch]  x2

                      [ch]D Bm[/ch]  x4

  [ch]D              Bm             SOL[/ch]
Te tengo que confesar   que ya estoy bien

  [ch]D                   Bm            SOL[/ch]
  ya no a dolido pensar en ti otra vez

       [ch]D            Bm[/ch]
y hoy es el día en que no existes
         [ch]G     LA[/ch]
Sabes que no me aces falta
       [ch]D          Bm[/ch]
y hoy es el día en que no pierdo
        [ch]G        LA[/ch]
el sueño por estar contigo

[ch]D[/ch]...

 [ch]D              Bm             SOL[/ch]
y deja ya de llorar esto acabo
  [ch]D              Bm             SOL[/ch]
 el sentimiento se fue   estoy mejor

    [ch]D            Bm[/ch]
y hoy es el día en que no existes
      [ch]G     LA[/ch]
Sabes que no me aces falta
    [ch]D          Bm[/ch]
y hoy es el día en que no pierdo
    [ch]G        LA[/ch]
el sueño por estar contigo


solo:

1----------------------------------------------------------
2----------------------------------------------------------
3----------------------------------------------------------
4----------------------------------------------------------
5-5-5---5-5-5-0---4-4---4-4-4-0---2-2---2-2-2-0------------
6---------------------------------------------3-3---3-3-3-0

x2

[ch]D          Bm        SOL[/ch]
ya no me duelen tus palabras
   [ch]D         Bm      SOL[/ch]
ya no me importa lo que hagas

   [ch]D            Bm[/ch]
y hoy es el día en que no existes
     [ch]G       LA[/ch]
Sabes que no me aces falta
    [ch]D          Bm[/ch]
y hoy es el día en que no pierdo
      [ch]G         LA[/ch]
el sueño por estar contigo

hoy es el día en el que

1----------------------------
2----------------------------
3-14-7-9-14-11-9-14-7-9-11-9-
4-xx-x-x-xx-xx-x-xx-x-x-xx-x-
5-12-5-7-12--9-7-12-5-7-9-7--
6----------------------------

hoy es el día en el que

1-------------------------------
2-------------------------------
3-14-7-9-14-11-9-14-7-9-11-9--7-
4-xx-x-x-xx-xx-x-xx-x-x-xx-x--x-
5-12-5-7-12--9-7-12-5-7-9-7---5-
6-------------------------------

[ch]D[/ch]

1-----
2-----
3--7--
4--7--
5--5--
6-----

Bm

1-----
2-----
3--4--
4--4--
5--2--
6-----

[ch]G[/ch]

1-----
2-----
3-----
4--5--
5--5--
6--3--

s

1----
2----
3--9-
4--9-
5--7-
6----

ps ay les dejo la rola de masappan
mi correo es charly_25-92@
o adarga92@
Suggest correction
Give kudos to tab author, rate the tab!
1 2 3 4 5
comments
print report bad tab
guest
You may want to rate the tab now too:
select rating
Wanna post a correction for this tab? Suggest correction