Oops, an error
Loading. Please wait.

Shore Tab

version 1
version 1

Intro

Interactive

826 views 1 this week
no commentswrite comment
1 2 3 4 5
please rate
add to favorites
launch autoscroll
font size
0
reset
how to read this tab
guitar tuner
Autoscroll
slow
fast
+/-
esc
set tempo
stop
Help us to improve Ultimate-Guitar.com Take our survey!
×
Author
-------------------------------------------------------------------------------
                             The Shore - Mashlin
-------------------------------------------------------------------------------

Tuning: EADGBe

e|-----0-------3-------0-------0-------0-------3-------0-------0-----------|
B|---1---1---1---1---1---1---1---1---1---1---1---1---1---1---1---1---------|
G|-2---------------0-------0-------2---------------0-------0---------------|
D|-------------------------------------------------------------------------|
A|---------3-------------------------------3-------------------------------|
E|-------------------------------------------------------------------------|


http://www.111records.com/newsite/mashlin.html
Suggest correction
Give kudos to tab author, rate the tab!
1 2 3 4 5
comments
print report bad tab
guest
You may want to rate the tab now too:
select rating
Please do not post tabs as comments. Select "correction" instead!