Oops, an error
Loading. Please wait.

Ingrata Suerte Tab

by Masizzo
20 views 1 this week
no commentswrite comment
1 2 3 4 5
3 more votes to show rating
add to favorites
×
Save as Personal and add changes to this tab that will be seen only by you. Learn more ›
×
You can save this tab as Personal to edit and correct it or add notes. All changes will be seen only by you. Learn more »
save as personal
new!
launch autoscroll
font size
0
reset
how to read this tab
guitar tuner
Autoscroll
slow
fast
+/-
esc
set tempo
stop
INGRATA SUERTE      MASIZZO

INTRO:
1er. requinteo:
F----------------------------------------
C----7-------4--------7----------------
G----------------5----------------------
D----------------------------------------
A----------------------------------------
E----------------------------------------

2o. requinteo:  

F--------------------------------------------------
C-----7---4------7---4-----7---4------7--4------
G-------------5----------5----------5---------5--
D---------------------------------------------------
A---------------------------------------------------
E---------------------------------------------------

Intro Musica:Do,Do/x7,Lam,Fa,Mim,Rem,Sol-Fa#-Fa-Mi

(NOTA:cuando cambia al segundo tono(Lam)sigue el requinteo 
que esta abajo,y despues en la parte 
cuandollega a sol,se le da un rasgueo a Sol,
y lo desplazas hacia atras hasta el tono de Mi.).

Requinteo en el intro de Lam:

F---------9-9-9--7-6----------------
C----------------------9-7-6--5-----
G-------------------------------------
D-------------------------------------
A-------------------------------------
E--------------------------------------


[ch]C[/ch]
Ya trate,                                      
                                 [ch]Am[/ch]
Mil maneras de olvidatre y no logré,
             (1)                [ch]F[/ch]
Arrancar de mis entrañas,tu querer,
  
 (2)  [ch]D7                          SOL[/ch]  
Y tan solo te has clavado mas en mi alma.


(3)       [ch]C[/ch]
Se muy bien,
                                  [ch]Am[/ch] 
Que no quieres nunca mas saber de mi,
                                   [ch]F[/ch]
No te importa que sin ti sienta morir,
  (2)     [ch]D7                    SOL[/ch]
Que no quieres escuchar explicaciones.

Requinteo:este requinteo se hace abanicando,hacia arriba 
y hacia abajo....
los primeros dos son hacia habajo y el tercer es hacia arriba 
lo remarcare con  y le entiendan!!

F-------6--9---6--9---6--9---6--9---4--7---4--7---4--7--4--7--
C----7-------7-------7------7-------5-------5------5------5-------
G--------------------------------------------------------------------

Sigue mas del requinteo aqui abajo
(al terminar el rquinteo al ultimo se marca el tono se Sol completo
 que son los dos ultimos numeros.

F------3-6---3-6----3-6----4-7----6------------------------------------------
C---4----- 4------4-------5---------7--------------------------------------
G---------------------------------------------------------------------

         [ch]C[/ch]
Ingrata suerte,
                [ch]Dm[/ch]
Como fui a conocerte,
                 [ch]F[/ch]
Como pude yo perderme,
                [ch]F#  SOL[/ch]
En tus brazos piel a piel.
(3)       [ch]C[/ch]
Ingrata suerte,
                    [ch]Dm[/ch]
Me enseñaste como amarte,
               [ch]F[/ch]
Pero no a olvidarte,
                      [ch]F# SOL[/ch]
Y hoy sin ti no se que hacer. 

 Requinto:F-----------6--
          C---7---7-----
          G-----7-------


    [ch]Am[/ch]
Necesito de tu aliento,
        [ch]C[/ch]
De tus besos de tu cuerpo,
    [ch]F         SOL[/ch]          [ch]C[/ch]
Necesito amanecer juntito a ti.

Intro desde el principio

Nota los numeros que estan en la letra desde el principio,

Son los requinteos que acontinuacion voy
 a poner,
Espero que puedan entenderle.

1)F----------7----7--11--7------
   C-----9------9------------------
   G--9----9-----------------------


2)F---------------
   C--4-5-6-------
   G---------------

3) F---7--------------------
    C-------------------------
    G------------4--5--------
    D-------5--7-------------
    A-------------------------
    E--------------------------

APOYEN A LA MUSICA TEJANA!!!!! Y NORTEÑA
Despues les paso todos los demas requiteos de las 
otras canciones!!!1
Suggest correction
Give kudos to tab author, rate the tab!
1 2 3 4 5
comments
print report bad tab
guest
Wanna post a correction for this tab? Suggest correction