Oops, an error
Loading. Please wait.

Me Hace Llorar Tab

by Masizzo
29 views 1 this week
no commentswrite comment
1 2 3 4 5
3 more votes to show rating
add to favorites
launch autoscroll
font size
0
reset
how to read this tab
guitar tuner
×
Best way to learn
"Me Hace Llorar"
Autoscroll
slow
fast
+/-
esc
set tempo
stop
Atencion:los tonos estan en la otra cancion,
Aqui solo pondre los requintos ok?
Donde esta el numero con el parentesis esta el requinto.

Que me estrañas ?
Ya estas?
Que otra ya tu?
Que has cambiado?
Pero mi alma?

Porque era yo un don nadie,
Con un pobre corazon,
Con un pobre corazon,amor(1)


Requinto(1):
F-7------------------------------------
C---10-8-7-10-8-7----8-7------7--------
G-----------------10-----10-8---10-8-7-

Inter:La#x7Rem,(2)Solm,Rem,Re#,La#(3),Fa,Re#,La#

Requinto(2)
F-------------------
C-------5-------5---
G-5-6-7---5-6-7-----
D-----------------5-

Requinto(3):
F-------------------------
C------9----9-10-12-10-9--
G-10-12--12---------------
D-------------------------

El segundo creo que le falta..si pueden sacarlo mejor 
Adelante?

Tambien chequen las demas canciones

Y no dejen de apoyar a la musica norteña!!
Suggest correction
Give kudos to tab author, rate the tab!
1 2 3 4 5
comments
print report bad tab
guest
You may want to rate the tab now too:
select rating
Wanna post a correction for this tab? Suggest correction