Oops, an error
Loading. Please wait.

Tabernero Bass Tab

42 views 1 this week
no commentswrite comment
1 2 3 4 5
3 more votes to show rating
add to favorites
launch autoscroll
font size
0
reset
guitar tuner
Autoscroll
slow
fast
+/-
esc
set tempo
stop
Help us to improve Ultimate-Guitar.com Take our survey!
×
G|--------------------------------------------------------------------|
D|---------------------1-4-1---1-4-1---2-5-2---2-5-2---4-7-4---4-7-4--|
A|----2-5-2---2-5-2--2-------2-------3-------3-------5-------5--------|
E|--3-------3---------------------------------------------------------|

G|--------------------------------------------------------------------|
D|---------------------1-4-1---1-4-1---2-5-2---2-5-2---4-7-4---4-7-4--|
A|----2-5-2---2-5-2--2-------2-------3-------3-------5-------5--------|
E|--3-------3---------------------------------------------------------|

Tabernero...
G|--------------------------------------------------------------------|
D|---------------------1-4-1---1-4-1---2-5-2---2-5-2---4-7-4---4-7-4--|
A|----2-5-2---2-5-2--2-------2-------3-------3-------5-------5--------|
E|--3-------3---------------------------------------------------------|

Tabernero...
G|--------------------------------------------------------------------|
D|---------------------1-4-1---1-4-1---2-5-2---2-5-2---4-7-4---4-7-4--|
A|----2-5-2---2-5-2--2-------2-------3-------3-------5-------5--------|
E|--3-------3---------------------------------------------------------|

Tabernero sirveme una copa...
G|-------------------------------------------------------------------------|
D|--------------------------1-4-1---1-4-1---2-5-2---2-5-2---4-7-4---4-7-4--|
A|---------2-5-2---2-5-2--2-------2-------3-------3-------5-------5--------|
E|-------3-------3---------------------------------------------------------|

Tabernero sirveme una chela...
G|-------------------------------------------------------------------------|
D|--------------------------1-4-1---1-4-1---2-5-2---2-5-2---4-7-4---4-7-4--|
A|---------2-5-2---2-5-2--2-------2-------3-------3-------5-------5--------|
E|-------3-------3---------------------------------------------------------|

G|--------------------------------------------------------------------|
D|---------------------1-4-1---1-4-1---2-5-2---2-5-2---4-7-4---4-7-4--|
A|----2-5-2---2-5-2--2-------2-------3-------3-------5-------5--------|
E|--3-------3---------------------------------------------------------|

G|--------------------------------------------------------------------|
D|---------------------1-4-1---1-4-1---2-5-2---2-5-2---4-7-4---4-7-4--|
A|----2-5-2---2-5-2--2-------2-------3-------3-------5-------5--------|
E|--3-------3---------------------------------------------------------|

Tabernero sirveme una copa...
G|-------------------------------------------------------------------------|
D|--------------------------1-4-1---1-4-1---2-5-2---2-5-2---4-7-4---4-7-4--|
A|---------2-5-2---2-5-2--2-------2-------3-------3-------5-------5--------|
E|-------3-------3---------------------------------------------------------|

Tabernero sirveme una copa...
G|-------------------------------------------------------------------------|
D|--------------------------1-4-1---1-4-1---2-5-2---2-5-2---4-7-4---4-7-4--|
A|---------2-5-2---2-5-2--2-------2-------3-------3-------5-------5--------|
E|-------3-------3---------------------------------------------------------|

G|--------------------------------------------------------------------|
D|---------------------1-4-1---1-4-1---2-5-2---2-5-2---4-7-4---4-7-4--|
A|----2-5-2---2-5-2--2-------2-------3-------3-------5-------5--------|
E|--3-------3---------------------------------------------------------|

G|--------------------------------------------------------------------|
D|---------------------1-4-1---1-4-1---2-5-2---2-5-2---4-7-4---4-7-4--|
A|----2-5-2---2-5-2--2-------2-------3-------3-------5-------5--------|
E|--3-------3---------------------------------------------------------|

Ya no esta
G|--------|
D|--------|
A|--------|
E|-----3--|

G|---------------------------------------------------|
D|-----------------------------55-44-33----55-44-33--|
A|-----55-44-33----55-44-33-33----------33-----------|
E|--33----------33-----------------------------------|

G|-----55-44-33----55-44-33----77-66-55----77-66-5-----|
D|--33----------33----------55----------55-------------|
A|-----------------------------------------------------|
E|-----------------------------------------------------|

G|-------------------------------------------------------------|
D|----------------------------4-----------------4-7-4----------|
A|----------------22-22-22-2---2-33-33-33-33--5-------5-3-1-0--|
E|--33-33-33-33------------------------------------------------|

G|--------------------------------------------------------------------|
D|---------------------1-4-1---1-4-1---2-5-2---2-5-2---4-7-4---4-7-4--|
A|----2-5-2---2-5-2--2-------2-------3-------3-------5-------5--------|
E|--3-------3---------------------------------------------------------|

Tengo que olvidar...
G|--------------------------------------------------------------------|
D|---------------------1-4-1---1-4-1---2-5-2---2-5-2---4-7-4---4-7-4--|
A|----2-5-2---2-5-2--2-------2-------3-------3-------5-------5--------|
E|--3-------3---------------------------------------------------------|

Tengo que olvidar...
G|--------------------------------------------------------------------|
D|---------------------1-4-1---1-4-1---2-5-2---2-5-2---4-7-4---4-7-4--|
A|----2-5-2---2-5-2--2-------2-------3-------3-------5-------5--------|
E|--3-------3---------------------------------------------------------|

G|--------------------------------------------------------------------|
D|---------------------1-4-1---1-4-1---2-5-2---2-5-2---4-7-4---4-7-4--|
A|----2-5-2---2-5-2--2-------2-------3-------3-------5-------5--------|
E|--3-------3---------------------------------------------------------|

G|--------------------------------------------------------------------|
D|---------------------1-4-1---1-4-1---2-5-2---2-5-2---4-7-4---4-7-4--|
A|----2-5-2---2-5-2--2-------2-------3-------3-------5-------5--------|
E|--3-------3---------------------------------------------------------|
  Ska Ska!!!...
G|--------------------------------------------------------------------|
D|---------------------1-4-1---1-4-1---2-5-2---2-5-2---4-7-4---4-7-4--|
A|----2-5-2---2-5-2--2-------2-------3-------3-------5-------5--------|
E|--3-------3---------------------------------------------------------|

G|--------------------------------------------------------------------|
D|---------------------1-4-1---1-4-1---2-5-2---2-5-2---4-7-4---4-7-4--|
A|----2-5-2---2-5-2--2-------2-------3-------3-------5-------5--------|
E|--3-------3---------------------------------------------------------|

Tabernero sirveme una copa...
G|-------------------------------------------------------------------------|
D|--------------------------1-4-1---1-4-1---2-5-2---2-5-2---4-7-4---4-7-4--|
A|---------2-5-2---2-5-2--2-------2-------3-------3-------5-------5--------|
E|-------3-------3---------------------------------------------------------|

Tabernero sirveme una copa...
G|-------------------------------------------------------------------------|
D|--------------------------1-4-1---1-4-1---2-5-2---2-5-2---4-7-4---4-7-4--|
A|---------2-5-2---2-5-2--2-------2-------3-------3-------5-------5--------|
E|-------3-------3---------------------------------------------------------|

G|--------------------------------------------------------------------|
D|---------------------1-4-1---1-4-1---2-5-2---2-5-2---4-7-4---4-7-4--|
A|----2-5-2---2-5-2--2-------2-------3-------3-------5-------5--------|
E|--3-------3---------------------------------------------------------|

G|--------------------------------------------------------------------|
D|---------------------1-4-1---1-4-1---2-5-2---2-5-2---4-7-4---4-7-4--|
A|----2-5-2---2-5-2--2-------2-------3-------3-------5-------5--------|
E|--3-------3---------------------------------------------------------|

Ya no esta
G|--------|
D|--------|
A|--------|
E|-----3--|


FIN...


GRACIAS
Suggest correction
Give kudos to tab author, rate the tab!
1 2 3 4 5
comments
print report bad tab
guest
You may want to rate the tab now too:
select rating
Wanna post a correction for this tab? Suggest correction